  0
SECTION
  2
HEADER
  9
$ACADVER
  1
AC1014
  9
$ACADMAINTVER
 70
     9
  9
$DWGCODEPAGE
  3
ANSI_1252
  9
$INSBASE
 10
0.0
 20
0.0
 30
0.0
  9
$EXTMIN
 10
1.000000000000000E+20
 20
1.000000000000000E+20
 30
1.000000000000000E+20
  9
$EXTMAX
 10
-1.000000000000000E+20
 20
-1.000000000000000E+20
 30
-1.000000000000000E+20
  9
$LIMMIN
 10
0.0
 20
0.0
  9
$LIMMAX
 10
12.0
 20
9.0
  9
$ORTHOMODE
 70
     0
  9
$REGENMODE
 70
     1
  9
$FILLMODE
 70
     1
  9
$QTEXTMODE
 70
     0
  9
$MIRRTEXT
 70
     1
  9
$DRAGMODE
 70
     2
  9
$LTSCALE
 40
1.0
  9
$OSMODE
 70
    37
  9
$ATTMODE
 70
     1
  9
$TEXTSIZE
 40
0.2
  9
$TRACEWID
 40
0.05
  9
$TEXTSTYLE
  7
STANDARD
  9
$CLAYER
  8
0
  9
$CELTYPE
  6
BYLAYER
  9
$CECOLOR
 62
   256
  9
$CELTSCALE
 40
1.0
  9
$DELOBJ
 70
     1
  9
$DISPSILH
 70
     0
  9
$DIMSCALE
 40
1.0
  9
$DIMASZ
 40
0.18
  9
$DIMEXO
 40
0.0625
  9
$DIMDLI
 40
0.38
  9
$DIMRND
 40
0.0
  9
$DIMDLE
 40
0.0
  9
$DIMEXE
 40
0.18
  9
$DIMTP
 40
0.0
  9
$DIMTM
 40
0.0
  9
$DIMTXT
 40
0.18
  9
$DIMCEN
 40
0.09
  9
$DIMTSZ
 40
0.0
  9
$DIMTOL
 70
     0
  9
$DIMLIM
 70
     0
  9
$DIMTIH
 70
     1
  9
$DIMTOH
 70
     1
  9
$DIMSE1
 70
     0
  9
$DIMSE2
 70
     0
  9
$DIMTAD
 70
     0
  9
$DIMZIN
 70
     0
  9
$DIMBLK
  1

  9
$DIMASO
 70
     1
  9
$DIMSHO
 70
     1
  9
$DIMPOST
  1

  9
$DIMAPOST
  1

  9
$DIMALT
 70
     0
  9
$DIMALTD
 70
     2
  9
$DIMALTF
 40
25.4
  9
$DIMLFAC
 40
1.0
  9
$DIMTOFL
 70
     0
  9
$DIMTVP
 40
0.0
  9
$DIMTIX
 70
     0
  9
$DIMSOXD
 70
     0
  9
$DIMSAH
 70
     0
  9
$DIMBLK1
  1

  9
$DIMBLK2
  1

  9
$DIMSTYLE
  2
STANDARD
  9
$DIMCLRD
 70
     0
  9
$DIMCLRE
 70
     0
  9
$DIMCLRT
 70
     0
  9
$DIMTFAC
 40
1.0
  9
$DIMGAP
 40
0.09
  9
$DIMJUST
 70
     0
  9
$DIMSD1
 70
     0
  9
$DIMSD2
 70
     0
  9
$DIMTOLJ
 70
     1
  9
$DIMTZIN
 70
     0
  9
$DIMALTZ
 70
     0
  9
$DIMALTTZ
 70
     0
  9
$DIMFIT
 70
     3
  9
$DIMUPT
 70
     0
  9
$DIMUNIT
 70
     2
  9
$DIMDEC
 70
     4
  9
$DIMTDEC
 70
     4
  9
$DIMALTU
 70
     2
  9
$DIMALTTD
 70
     2
  9
$DIMTXSTY
  7
STANDARD
  9
$DIMAUNIT
 70
     0
  9
$LUNITS
 70
     2
  9
$LUPREC
 70
     4
  9
$SKETCHINC
 40
0.1
  9
$FILLETRAD
 40
0.5
  9
$AUNITS
 70
     0
  9
$AUPREC
 70
     0
  9
$MENU
  1
.
  9
$ELEVATION
 40
0.0
  9
$PELEVATION
 40
0.0
  9
$THICKNESS
 40
0.0
  9
$LIMCHECK
 70
     0
  9
$CHAMFERA
 40
0.5
  9
$CHAMFERB
 40
0.5
  9
$CHAMFERC
 40
1.0
  9
$CHAMFERD
 40
0.0
  9
$SKPOLY
 70
     0
  9
$TDCREATE
 40
2459129.542512049
  9
$TDUPDATE
 40
2459129.542512176
  9
$TDINDWG
 40
0.0000000116
  9
$TDUSRTIMER
 40
0.0000000116
  9
$USRTIMER
 70
     1
  9
$ANGBASE
 50
0.0
  9
$ANGDIR
 70
     0
  9
$PDMODE
 70
     0
  9
$PDSIZE
 40
0.0
  9
$PLINEWID
 40
0.0
  9
$COORDS
 70
     1
  9
$SPLFRAME
 70
     0
  9
$SPLINETYPE
 70
     6
  9
$SPLINESEGS
 70
     8
  9
$ATTDIA
 70
     0
  9
$ATTREQ
 70
     1
  9
$HANDLING
 70
     1
  9
$HANDSEED
  5
13E
  9
$SURFTAB1
 70
     6
  9
$SURFTAB2
 70
     6
  9
$SURFTYPE
 70
     6
  9
$SURFU
 70
     6
  9
$SURFV
 70
     6
  9
$UCSNAME
  2

  9
$UCSORG
 10
0.0
 20
0.0
 30
0.0
  9
$UCSXDIR
 10
1.0
 20
0.0
 30
0.0
  9
$UCSYDIR
 10
0.0
 20
1.0
 30
0.0
  9
$PUCSNAME
  2

  9
$PUCSORG
 10
0.0
 20
0.0
 30
0.0
  9
$PUCSXDIR
 10
1.0
 20
0.0
 30
0.0
  9
$PUCSYDIR
 10
0.0
 20
1.0
 30
0.0
  9
$USERI1
 70
     0
  9
$USERI2
 70
     0
  9
$USERI3
 70
     0
  9
$USERI4
 70
     0
  9
$USERI5
 70
     0
  9
$USERR1
 40
0.0
  9
$USERR2
 40
0.0
  9
$USERR3
 40
0.0
  9
$USERR4
 40
0.0
  9
$USERR5
 40
0.0
  9
$WORLDVIEW
 70
     1
  9
$SHADEDGE
 70
     3
  9
$SHADEDIF
 70
    70
  9
$TILEMODE
 70
     1
  9
$MAXACTVP
 70
    64
  9
$PINSBASE
 10
0.0
 20
0.0
 30
0.0
  9
$PLIMCHECK
 70
     0
  9
$PEXTMIN
 10
1.000000000000000E+20
 20
1.000000000000000E+20
 30
1.000000000000000E+20
  9
$PEXTMAX
 10
-1.000000000000000E+20
 20
-1.000000000000000E+20
 30
-1.000000000000000E+20
  9
$PLIMMIN
 10
0.0
 20
0.0
  9
$PLIMMAX
 10
12.0
 20
9.0
  9
$UNITMODE
 70
     0
  9
$VISRETAIN
 70
     1
  9
$PLINEGEN
 70
     0
  9
$PSLTSCALE
 70
     1
  9
$TREEDEPTH
 70
  3020
  9
$PICKSTYLE
 70
     1
  9
$CMLSTYLE
  2
STANDARD
  9
$CMLJUST
 70
     0
  9
$CMLSCALE
 40
1.0
  9
$PROXYGRAPHICS
 70
     1
  9
$MEASUREMENT
 70
     0
  0
ENDSEC
  0
SECTION
  2
CLASSES
  0
CLASS
  1
ACDBDICTIONARYWDFLT
  2
AcDbDictionaryWithDefault
  3
ObjectDBX Classes
 90
        0
280
     0
281
     0
  0
CLASS
  1
VISUALSTYLE
  2
AcDbVisualStyle
  3
ObjectDBX Classes
 90
     4095
280
     0
281
     0
  0
CLASS
  1
MATERIAL
  2
AcDbMaterial
  3
ObjectDBX Classes
 90
     1153
280
     0
281
     0
  0
CLASS
  1
SUN
  2
AcDbSun
  3
SCENEOE
 90
     1024
280
     0
281
     0
  0
CLASS
  1
DICTIONARYVAR
  2
AcDbDictionaryVar
  3
ObjectDBX Classes
 90
        0
280
     0
281
     0
  0
CLASS
  1
XRECORD
  2
AcDbXrecord
  3
AutoCAD 2000
 90
        0
280
     0
281
     0
  0
CLASS
  1
LWPOLYLINE
  2
AcDbPolyline
  3
AutoCAD 2000
 90
        0
280
     0
281
     1
  0
CLASS
  1
HATCH
  2
AcDbHatch
  3
AutoCAD 2000
 90
        0
280
     0
281
     1
  0
CLASS
  1
ACDBPLACEHOLDER
  2
AcDbPlaceHolder
  3
ObjectDBX Classes
 90
        0
280
     0
281
     0
  0
CLASS
  1
LAYOUT
  2
AcDbLayout
  3
ObjectDBX Classes
 90
        0
280
     0
281
     0
  0
ENDSEC
  0
SECTION
  2
TABLES
  0
TABLE
  2
VPORT
  5
8
330
0
100
AcDbSymbolTable
 70
     1
  0
VPORT
  5
29
330
8
100
AcDbSymbolTableRecord
100
AcDbViewportTableRecord
  2
*ACTIVE
 70
     0
 10
0.0
 20
0.0
 11
1.0
 21
1.0
 12
0.0
 22
0.0
 13
0.0
 23
0.0
 14
0.5
 24
0.5
 15
0.5
 25
0.5
 16
0.0
 26
0.0
 36
1.0
 17
148.4999999628701
 27
-104.9999999737534
 37
0.0
 40
209.9999999475068
 41
1.414285714285622
 42
50.0
 43
0.0
 44
0.0
 50
0.0
 51
0.0
 71
     0
 72
   100
 73
     1
 74
     3
 75
     0
 76
     0
 77
     0
 78
     0
  0
ENDTAB
  0
TABLE
  2
LTYPE
  5
5
330
0
100
AcDbSymbolTable
 70
     1
  0
LTYPE
  5
14
330
5
100
AcDbSymbolTableRecord
100
AcDbLinetypeTableRecord
  2
BYBLOCK
 70
     0
  3

 72
    65
 73
     0
 40
0.0
  0
LTYPE
  5
15
330
5
100
AcDbSymbolTableRecord
100
AcDbLinetypeTableRecord
  2
BYLAYER
 70
     0
  3

 72
    65
 73
     0
 40
0.0
  0
LTYPE
  5
16
330
5
100
AcDbSymbolTableRecord
100
AcDbLinetypeTableRecord
  2
CONTINUOUS
 70
     0
  3
Solid line
 72
    65
 73
     0
 40
0.0
  0
ENDTAB
  0
TABLE
  2
LAYER
  5
2
330
0
100
AcDbSymbolTable
 70
     2
  0
LAYER
  5
10
330
2
100
AcDbSymbolTableRecord
100
AcDbLayerTableRecord
  2
0
 70
     0
 62
     7
  6
CONTINUOUS
  0
LAYER
  5
40
330
2
100
AcDbSymbolTableRecord
100
AcDbLayerTableRecord
  2
LAYER_1
 70
     0
 62
     7
  6
CONTINUOUS
  0
ENDTAB
  0
TABLE
  2
STYLE
  5
3
330
0
100
AcDbSymbolTable
 70
     1
  0
STYLE
  5
11
330
3
100
AcDbSymbolTableRecord
100
AcDbTextStyleTableRecord
  2
STANDARD
 70
     0
 40
0.0
 41
1.0
 50
0.0
 71
     0
 42
0.2
  3
txt
  4

  0
ENDTAB
  0
TABLE
  2
VIEW
  5
6
330
0
100
AcDbSymbolTable
 70
     0
  0
ENDTAB
  0
TABLE
  2
UCS
  5
7
330
0
100
AcDbSymbolTable
 70
     0
  0
ENDTAB
  0
TABLE
  2
APPID
  5
9
330
0
100
AcDbSymbolTable
 70
     1
  0
APPID
  5
12
330
9
100
AcDbSymbolTableRecord
100
AcDbRegAppTableRecord
  2
ACAD
 70
     0
  0
ENDTAB
  0
TABLE
  2
DIMSTYLE
  5
A
330
0
100
AcDbSymbolTable
 70
     1
  0
DIMSTYLE
105
27
330
A
100
AcDbSymbolTableRecord
100
AcDbDimStyleTableRecord
  2
STANDARD
 70
     0
  3

  4

  5

  6

  7

 40
1.0
 41
0.18
 42
0.0625
 43
0.38
 44
0.18
 45
0.0
 46
0.0
 47
0.0
 48
0.0
140
0.18
141
0.09
142
0.0
143
25.4
144
1.0
145
0.0
146
1.0
147
0.09
 71
     0
 72
     0
 73
     1
 74
     1
 75
     0
 76
     0
 77
     0
 78
     0
170
     0
171
     2
172
     0
173
     0
174
     0
175
     0
176
     0
177
     0
178
     0
270
     2
271
     4
272
     4
273
     2
274
     2
340
11
275
     0
280
     0
281
     0
282
     0
283
     1
284
     0
285
     0
286
     0
287
     3
288
     0
  0
ENDTAB
  0
TABLE
  2
BLOCK_RECORD
  5
1
330
0
100
AcDbSymbolTable
 70
     1
  0
BLOCK_RECORD
  5
1F
330
1
100
AcDbSymbolTableRecord
100
AcDbBlockTableRecord
  2
*MODEL_SPACE
  0
BLOCK_RECORD
  5
1B
330
1
100
AcDbSymbolTableRecord
100
AcDbBlockTableRecord
  2
*PAPER_SPACE
  0
ENDTAB
  0
ENDSEC
  0
SECTION
  2
BLOCKS
  0
BLOCK
  5
20
330
1F
100
AcDbEntity
  8
0
100
AcDbBlockBegin
  2
*MODEL_SPACE
 70
     0
 10
0.0
 20
0.0
 30
0.0
  3
*MODEL_SPACE
  1

  0
ENDBLK
  5
21
330
1F
100
AcDbEntity
  8
0
100
AcDbBlockEnd
  0
BLOCK
  5
1C
330
1B
100
AcDbEntity
 67
     1
  8
0
100
AcDbBlockBegin
  2
*PAPER_SPACE
 70
     0
 10
0.0
 20
0.0
 30
0.0
  3
*PAPER_SPACE
  1

  0
ENDBLK
  5
1D
330
1B
100
AcDbEntity
 67
     1
  8
0
100
AcDbBlockEnd
  0
ENDSEC
  0
SECTION
  2
ENTITIES
  0
SPLINE
  5
41
330
1F
100
AcDbEntity
  8
LAYER_1
 62
     7
100
AcDbSpline
210
0.0
220
0.0
230
1.0
 70
    11
 71
     3
 72
    71
 73
    67
 74
     0
 42
0.0000000001
 43
0.0000000001
 12
1.0
 22
0.0
 32
0.0
 13
1.0
 23
0.0
 33
0.0
 40
0.0
 40
0.0
 40
0.0
 40
0.0
 40
1.0
 40
1.0
 40
1.0
 40
2.0
 40
2.0
 40
2.0
 40
3.0
 40
3.0
 40
3.0
 40
4.0
 40
4.0
 40
4.0
 40
5.0
 40
5.0
 40
5.0
 40
6.0
 40
6.0
 40
6.0
 40
7.0
 40
7.0
 40
7.0
 40
8.0
 40
8.0
 40
8.0
 40
9.0
 40
9.0
 40
9.0
 40
10.0
 40
10.0
 40
10.0
 40
11.0
 40
11.0
 40
11.0
 40
12.0
 40
12.0
 40
12.0
 40
13.0
 40
13.0
 40
13.0
 40
14.0
 40
14.0
 40
14.0
 40
15.0
 40
15.0
 40
15.0
 40
16.0
 40
16.0
 40
16.0
 40
17.0
 40
17.0
 40
17.0
 40
18.0
 40
18.0
 40
18.0
 40
19.0
 40
19.0
 40
19.0
 40
20.0
 40
20.0
 40
20.0
 40
21.0
 40
21.0
 40
21.0
 40
22.0
 40
22.0
 40
22.0
 40
22.0
 10
236.9566309265517
 20
-104.886249486386
 30
0.0
 10
236.9566309265517
 20
-105.1226261003677
 30
0.0
 10
236.9566309265517
 20
-105.3589811825029
 30
0.0
 10
236.949568480807
 20
-105.5953362646379
 30
0.0
 10
236.6109155946069
 20
-135.5567503399926
 30
0.0
 10
214.601061813217
 20
-159.7290905574738
 30
0.0
 10
187.5077973885667
 20
-159.7290905574738
 30
0.0
 10
187.5077973885667
 20
-159.7290905574738
 30
0.0
 10
148.6033676022859
 20
-159.7290905574738
 30
0.0
 10
148.6033676022859
 20
-159.7290905574738
 30
0.0
 10
138.101166270276
 20
-159.7290905574738
 30
0.0
 10
128.0258122688886
 20
-158.593134916753
 30
0.0
 10
118.6808185103741
 20
-156.5046965017478
 30
0.0
 10
118.6808185103741
 20
-156.5046965017478
 30
0.0
 10
119.7179645062086
 20
-151.3118179494435
 30
0.0
 10
119.7179645062086
 20
-151.3118179494435
 30
0.0
 10
120.4975896145206
 20
-151.1601260888586
 30
0.0
 10
121.1432005084565
 20
-150.5533371146722
 30
0.0
 10
121.3090818560712
 20
-149.7278491727128
 30
0.0
 10
121.5276731646103
 20
-148.6377563656394
 30
0.0
 10
120.8186725137459
 20
-147.5758918096983
 30
0.0
 10
119.7250269519534
 20
-147.3571713100785
 30
0.0
 10
118.6384438359056
 20
-147.1384508104587
 30
0.0
 10
117.5730480570921
 20
-147.8475375887102
 30
0.0
 10
117.3542844937787
 20
-148.9376088639368
 30
0.0
 10
117.1920204964234
 20
-149.763118337743
 30
0.0
 10
117.5554780701173
 20
-150.5709716971874
 30
0.0
 10
118.2150416007684
 20
-151.0119439192993
 30
0.0
 10
118.2150416007684
 20
-151.0119439192993
 30
0.0
 10
117.1849580506787
 20
-156.1589811698029
 30
0.0
 10
117.1849580506787
 20
-156.1589811698029
 30
0.0
 10
83.89689517922636
 20
-148.2990819475926
 30
0.0
 10
60.24665918253476
 20
-128.307171314841
 30
0.0
 10
60.24665918253476
 20
-104.886249486386
 30
0.0
 10
60.24665918253476
 20
-81.4688588808037
 30
0.0
 10
83.89689517922636
 20
-61.47694824805211
 30
0.0
 10
117.1849580506787
 20
-53.61707055768852
 30
0.0
 10
117.1849580506787
 20
-53.61707055768852
 30
0.0
 10
118.2150416007684
 20
-58.76408627634534
 30
0.0
 10
118.2150416007684
 20
-58.76408627634534
 30
0.0
 10
117.5554780701173
 20
-59.20505849845732
 30
0.0
 10
117.1920204964234
 20
-60.0129333897484
 30
0.0
 10
117.3542844937787
 20
-60.84195255458022
 30
0.0
 10
117.5730480570921
 20
-61.92851413878123
 30
0.0
 10
118.6384438359056
 20
-62.63757938518599
 30
0.0
 10
119.7250269519534
 20
-62.41885888556619
 30
0.0
 10
120.8186725137459
 20
-62.2001383859464
 30
0.0
 10
121.5276731646103
 20
-61.13827383000527
 30
0.0
 10
121.3090818560712
 20
-60.04820255477865
 30
0.0
 10
121.1432005084565
 20
-59.22269308097276
 30
0.0
 10
120.4975896145206
 20
-58.61592563863314
 30
0.0
 10
119.7179645062086
 20
-58.46423377804791
 30
0.0
 10
119.7179645062086
 20
-58.46423377804791
 30
0.0
 10
118.6808185103741
 20
-53.27133369389691
 30
0.0
 10
118.6808185103741
 20
-53.27133369389691
 30
0.0
 10
128.0258122688886
 20
-51.18289527889168
 30
0.0
 10
138.101166270276
 20
-50.04696117001767
 30
0.0
 10
148.6033676022859
 20
-50.04696117001767
 30
0.0
 10
148.6033676022859
 20
-50.04696117001767
 30
0.0
 10
187.5077973885667
 20
-50.04696117001767
 30
0.0
 10
187.5077973885667
 20
-50.04696117001767
 30
0.0
 10
214.601061813217
 20
-50.04696117001767
 30
0.0
 10
236.6109155946069
 20
-74.21927985565243
 30
0.0
 10
236.949568480807
 20
-104.1771627081344
 30
0.0
 10
236.9566309265517
 20
-104.4135393221161
 30
0.0
 10
236.9566309265517
 20
-104.6498944042514
 30
0.0
 10
236.9566309265517
 20
-104.886249486386
 30
0.0
  0
SPLINE
  5
42
330
1F
100
AcDbEntity
  8
LAYER_1
 62
     1
100
AcDbSpline
210
0.0
220
0.0
230
1.0
 70
    11
 71
     3
 72
    17
 73
    13
 74
     0
 42
0.0000000001
 43
0.0000000001
 12
1.0
 22
0.0
 32
0.0
 13
1.0
 23
0.0
 33
0.0
 40
0.0
 40
0.0
 40
0.0
 40
0.0
 40
1.0
 40
1.0
 40
1.0
 40
2.0
 40
2.0
 40
2.0
 40
3.0
 40
3.0
 40
3.0
 40
4.0
 40
4.0
 40
4.0
 40
4.0
 10
111.413705801529
 20
-145.2098214379069
 30
0.0
 10
111.116610921663
 20
-145.0630519845045
 30
0.0
 10
110.9947480856106
 20
-144.7032288478035
 30
0.0
 10
111.141517539011
 20
-144.4061339679369
 30
0.0
 10
111.2882869924189
 20
-144.1090390880689
 30
0.0
 10
111.6481101291182
 20
-143.9871762520152
 30
0.0
 10
111.9452050089868
 20
-144.1339457054188
 30
0.0
 10
112.2422998888528
 20
-144.2807151588238
 30
0.0
 10
112.3641627249053
 20
-144.6405382955235
 30
0.0
 10
112.2173932715042
 20
-144.9376331753901
 30
0.0
 10
112.0706238180967
 20
-145.2347280552568
 30
0.0
 10
111.7108006813976
 20
-145.3565908913105
 30
0.0
 10
111.413705801529
 20
-145.2098214379069
 30
0.0
  0
SPLINE
  5
43
330
1F
100
AcDbEntity
  8
LAYER_1
 62
     1
100
AcDbSpline
210
0.0
220
0.0
230
1.0
 70
    11
 71
     3
 72
    17
 73
    13
 74
     0
 42
0.0000000001
 43
0.0000000001
 12
1.0
 22
0.0
 32
0.0
 13
1.0
 23
0.0
 33
0.0
 40
0.0
 40
0.0
 40
0.0
 40
0.0
 40
1.0
 40
1.0
 40
1.0
 40
2.0
 40
2.0
 40
2.0
 40
3.0
 40
3.0
 40
3.0
 40
4.0
 40
4.0
 40
4.0
 40
4.0
 10
86.31143298191373
 20
-132.8089114572838
 30
0.0
 10
86.01433810203808
 20
-132.6621420038789
 30
0.0
 10
85.89247526599267
 20
-132.3023188671792
 30
0.0
 10
86.03924471939314
 20
-132.0052239873125
 30
0.0
 10
86.18601417279682
 20
-131.7081291074459
 30
0.0
 10
86.54583730949972
 20
-131.5862662713921
 30
0.0
 10
86.84293218936187
 20
-131.7330357247958
 30
0.0
 10
87.14002706923046
 20
-131.8798051781995
 30
0.0
 10
87.26188990528678
 20
-132.2396283148992
 30
0.0
 10
87.11512045188246
 20
-132.5367231947671
 30
0.0
 10
86.96835099847878
 20
-132.8338180746325
 30
0.0
 10
86.60852786177973
 20
-132.9556809106875
 30
0.0
 10
86.31143298191373
 20
-132.8089114572838
 30
0.0
  0
SPLINE
  5
44
330
1F
100
AcDbEntity
  8
LAYER_1
 62
     1
100
AcDbSpline
210
0.0
220
0.0
230
1.0
 70
    11
 71
     3
 72
    17
 73
    13
 74
     0
 42
0.0000000001
 43
0.0000000001
 12
1.0
 22
0.0
 32
0.0
 13
1.0
 23
0.0
 33
0.0
 40
0.0
 40
0.0
 40
0.0
 40
0.0
 40
1.0
 40
1.0
 40
1.0
 40
2.0
 40
2.0
 40
2.0
 40
3.0
 40
3.0
 40
3.0
 40
4.0
 40
4.0
 40
4.0
 40
4.0
 10
111.4137058015361
 20
-64.59410934492045
 30
0.0
 10
111.116610921663
 20
-64.74087879832317
 30
0.0
 10
110.9947480856106
 20
-65.10070193502446
 30
0.0
 10
111.1415175390187
 20
-65.39779681489112
 30
0.0
 10
111.2882869924189
 20
-65.69489169475841
 30
0.0
 10
111.6481101291182
 20
-65.81675453081216
 30
0.0
 10
111.9452050089868
 20
-65.6699850774085
 30
0.0
 10
112.2422998888528
 20
-65.52321562400418
 30
0.0
 10
112.3641627249053
 20
-65.16339248730448
 30
0.0
 10
112.2173932715042
 20
-64.86629760743783
 30
0.0
 10
112.0706238180967
 20
-64.56920272757117
 30
0.0
 10
111.7108006813976
 20
-64.44733989151678
 30
0.0
 10
111.4137058015361
 20
-64.59410934492045
 30
0.0
  0
SPLINE
  5
45
330
1F
100
AcDbEntity
  8
LAYER_1
 62
     1
100
AcDbSpline
210
0.0
220
0.0
230
1.0
 70
    11
 71
     3
 72
    17
 73
    13
 74
     0
 42
0.0000000001
 43
0.0000000001
 12
1.0
 22
0.0
 32
0.0
 13
1.0
 23
0.0
 33
0.0
 40
0.0
 40
0.0
 40
0.0
 40
0.0
 40
1.0
 40
1.0
 40
1.0
 40
2.0
 40
2.0
 40
2.0
 40
3.0
 40
3.0
 40
3.0
 40
4.0
 40
4.0
 40
4.0
 40
4.0
 10
86.31143298191373
 20
-76.99501932554348
 30
0.0
 10
86.01433810203808
 20
-77.14178877894844
 30
0.0
 10
85.89247526599267
 20
-77.50161191564814
 30
0.0
 10
86.03924471939314
 20
-77.79870679551479
 30
0.0
 10
86.18601417279682
 20
-78.09580167538145
 30
0.0
 10
86.54583730949972
 20
-78.2176645114352
 30
0.0
 10
86.84293218936187
 20
-78.0708950580312
 30
0.0
 10
87.14002706923046
 20
-77.92412560462753
 30
0.0
 10
87.26188990528678
 20
-77.56430246792816
 30
0.0
 10
87.11512045188246
 20
-77.26720758806022
 30
0.0
 10
86.96835099847878
 20
-76.97011270819452
 30
0.0
 10
86.60852786177973
 20
-76.8482498721398
 30
0.0
 10
86.31143298191373
 20
-76.99501932554348
 30
0.0
  0
SPLINE
  5
46
330
1F
100
AcDbEntity
  8
LAYER_1
 62
     1
100
AcDbSpline
210
0.0
220
0.0
230
1.0
 70
    11
 71
     3
 72
    17
 73
    13
 74
     0
 42
0.0000000001
 43
0.0000000001
 12
1.0
 22
0.0
 32
0.0
 13
1.0
 23
0.0
 33
0.0
 40
0.0
 40
0.0
 40
0.0
 40
0.0
 40
1.0
 40
1.0
 40
1.0
 40
2.0
 40
2.0
 40
2.0
 40
3.0
 40
3.0
 40
3.0
 40
4.0
 40
4.0
 40
4.0
 40
4.0
 10
133.2337304966269
 20
-88.63805682769254
 30
0.0
 10
133.2337304966269
 20
-87.80966407104914
 30
0.0
 10
132.562112163465
 20
-87.13804575485021
 30
0.0
 10
131.733754663672
 20
-87.13804575485021
 30
0.0
 10
130.905361886098
 20
-87.13804575485021
 30
0.0
 10
130.2337435529326
 20
-87.80966407104914
 30
0.0
 10
130.2337435529326
 20
-88.63805682769254
 30
0.0
 10
130.2337435529326
 20
-89.46658594049303
 30
0.0
 10
130.905361886098
 20
-90.13802788476863
 30
0.0
 10
131.733754663672
 20
-90.13802788476863
 30
0.0
 10
132.562112163465
 20
-90.13802788476863
 30
0.0
 10
133.2337304966269
 20
-89.46658594049303
 30
0.0
 10
133.2337304966269
 20
-88.63805682769254
 30
0.0
  0
SPLINE
  5
47
330
1F
100
AcDbEntity
  8
LAYER_1
 62
     1
100
AcDbSpline
210
0.0
220
0.0
230
1.0
 70
    11
 71
     3
 72
    17
 73
    13
 74
     0
 42
0.0000000001
 43
0.0000000001
 12
1.0
 22
0.0
 32
0.0
 13
1.0
 23
0.0
 33
0.0
 40
0.0
 40
0.0
 40
0.0
 40
0.0
 40
1.0
 40
1.0
 40
1.0
 40
2.0
 40
2.0
 40
2.0
 40
3.0
 40
3.0
 40
3.0
 40
4.0
 40
4.0
 40
4.0
 40
4.0
 10
208.7337304777518
 20
-88.63805682769254
 30
0.0
 10
208.7337304777518
 20
-87.80966407104914
 30
0.0
 10
208.0621121445895
 20
-87.13804575485021
 30
0.0
 10
207.2337546447969
 20
-87.13804575485021
 30
0.0
 10
206.4053618672229
 20
-87.13804575485021
 30
0.0
 10
205.7337435340574
 20
-87.80966407104914
 30
0.0
 10
205.7337435340574
 20
-88.63805682769254
 30
0.0
 10
205.7337435340574
 20
-89.46658594049303
 30
0.0
 10
206.4053618672229
 20
-90.13802788476863
 30
0.0
 10
207.2337546447969
 20
-90.13802788476863
 30
0.0
 10
208.0621121445895
 20
-90.13802788476863
 30
0.0
 10
208.7337304777518
 20
-89.46658594049303
 30
0.0
 10
208.7337304777518
 20
-88.63805682769254
 30
0.0
  0
SPLINE
  5
48
330
1F
100
AcDbEntity
  8
LAYER_1
 62
     1
100
AcDbSpline
210
0.0
220
0.0
230
1.0
 70
    11
 71
     3
 72
    17
 73
    13
 74
     0
 42
0.0000000001
 43
0.0000000001
 12
1.0
 22
0.0
 32
0.0
 13
1.0
 23
0.0
 33
0.0
 40
0.0
 40
0.0
 40
0.0
 40
0.0
 40
1.0
 40
1.0
 40
1.0
 40
2.0
 40
2.0
 40
2.0
 40
3.0
 40
3.0
 40
3.0
 40
4.0
 40
4.0
 40
4.0
 40
4.0
 10
133.2337304966269
 20
-121.1380568195682
 30
0.0
 10
133.2337304966269
 20
-120.3096640629245
 30
0.0
 10
132.562112163465
 20
-119.6380457467255
 30
0.0
 10
131.733754663672
 20
-119.6380457467255
 30
0.0
 10
130.905361886098
 20
-119.6380457467255
 30
0.0
 10
130.2337435529326
 20
-120.3096640629245
 30
0.0
 10
130.2337435529326
 20
-121.1380568195682
 30
0.0
 10
130.2337435529326
 20
-121.966585932368
 30
0.0
 10
130.905361886098
 20
-122.6380278766439
 30
0.0
 10
131.733754663672
 20
-122.6380278766439
 30
0.0
 10
132.562112163465
 20
-122.6380278766439
 30
0.0
 10
133.2337304966269
 20
-121.966585932368
 30
0.0
 10
133.2337304966269
 20
-121.1380568195682
 30
0.0
  0
SPLINE
  5
49
330
1F
100
AcDbEntity
  8
LAYER_1
 62
     1
100
AcDbSpline
210
0.0
220
0.0
230
1.0
 70
    11
 71
     3
 72
    17
 73
    13
 74
     0
 42
0.0000000001
 43
0.0000000001
 12
1.0
 22
0.0
 32
0.0
 13
1.0
 23
0.0
 33
0.0
 40
0.0
 40
0.0
 40
0.0
 40
0.0
 40
1.0
 40
1.0
 40
1.0
 40
2.0
 40
2.0
 40
2.0
 40
3.0
 40
3.0
 40
3.0
 40
4.0
 40
4.0
 40
4.0
 40
4.0
 10
208.7337304777518
 20
-121.1380568195682
 30
0.0
 10
208.7337304777518
 20
-120.3096640629245
 30
0.0
 10
208.0621121445895
 20
-119.6380457467255
 30
0.0
 10
207.2337546447969
 20
-119.6380457467255
 30
0.0
 10
206.4053618672229
 20
-119.6380457467255
 30
0.0
 10
205.7337435340574
 20
-120.3096640629245
 30
0.0
 10
205.7337435340574
 20
-121.1380568195682
 30
0.0
 10
205.7337435340574
 20
-121.966585932368
 30
0.0
 10
206.4053618672229
 20
-122.6380278766439
 30
0.0
 10
207.2337546447969
 20
-122.6380278766439
 30
0.0
 10
208.0621121445895
 20
-122.6380278766439
 30
0.0
 10
208.7337304777518
 20
-121.966585932368
 30
0.0
 10
208.7337304777518
 20
-121.1380568195682
 30
0.0
  0
POLYLINE
  5
4A
330
1F
100
AcDbEntity
  8
LAYER_1
 62
     3
100
AcDb2dPolyline
 66
     1
 10
0.0
 20
0.0
 30
0.0
  0
VERTEX
  5
4B
330
4A
100
AcDbEntity
  8
LAYER_1
 62
     3
100
AcDbVertex
100
AcDb2dVertex
 10
186.4664930683936
 20
-63.88803682599725
 30
0.0
  0
VERTEX
  5
4C
330
4A
100
AcDbEntity
  8
LAYER_1
 62
     3
100
AcDbVertex
100
AcDb2dVertex
 10
152.5009809622908
 20
-63.88803682599725
 30
0.0
  0
VERTEX
  5
4D
330
4A
100
AcDbEntity
  8
LAYER_1
 62
     3
100
AcDbVertex
100
AcDb2dVertex
 10
128.4837370255928
 20
-87.9052807626955
 30
0.0
  0
VERTEX
  5
4E
330
4A
100
AcDbEntity
  8
LAYER_1
 62
     3
100
AcDbVertex
100
AcDb2dVertex
 10
128.4837370255928
 20
-121.8707928687987
 30
0.0
  0
VERTEX
  5
4F
330
4A
100
AcDbEntity
  8
LAYER_1
 62
     3
100
AcDbVertex
100
AcDb2dVertex
 10
152.5009809622908
 20
-145.8880368054969
 30
0.0
  0
VERTEX
  5
50
330
4A
100
AcDbEntity
  8
LAYER_1
 62
     3
100
AcDbVertex
100
AcDb2dVertex
 10
186.4664930683936
 20
-145.8880368054969
 30
0.0
  0
VERTEX
  5
51
330
4A
100
AcDbEntity
  8
LAYER_1
 62
     3
100
AcDbVertex
100
AcDb2dVertex
 10
210.4837370050918
 20
-121.8707928687987
 30
0.0
  0
VERTEX
  5
52
330
4A
100
AcDbEntity
  8
LAYER_1
 62
     3
100
AcDbVertex
100
AcDb2dVertex
 10
210.4837370050918
 20
-87.9052807626955
 30
0.0
  0
VERTEX
  5
53
330
4A
100
AcDbEntity
  8
LAYER_1
 62
     3
100
AcDbVertex
100
AcDb2dVertex
 10
186.4664930683936
 20
-63.88803682599725
 30
0.0
  0
SEQEND
  5
54
330
4A
100
AcDbEntity
  8
LAYER_1
 62
     3
  0
SPLINE
  5
55
330
1F
100
AcDbEntity
  8
LAYER_1
 62
     1
100
AcDbSpline
210
0.0
220
0.0
230
1.0
 70
    11
 71
     3
 72
    17
 73
    13
 74
     0
 42
0.0000000001
 43
0.0000000001
 12
1.0
 22
0.0
 32
0.0
 13
1.0
 23
0.0
 33
0.0
 40
0.0
 40
0.0
 40
0.0
 40
0.0
 40
1.0
 40
1.0
 40
1.0
 40
2.0
 40
2.0
 40
2.0
 40
3.0
 40
3.0
 40
3.0
 40
4.0
 40
4.0
 40
4.0
 40
4.0
 10
71.24513526210428
 20
-107.8880368149978
 30
0.0
 10
69.588281013119
 20
-107.8880368149978
 30
0.0
 10
68.2451352628556
 20
-106.5448910647319
 30
0.0
 10
68.2451352628556
 20
-104.888036815745
 30
0.0
 10
68.2451352628556
 20
-103.2311825667623
 30
0.0
 10
69.588281013119
 20
-101.8880368164963
 30
0.0
 10
71.24513526210428
 20
-101.8880368164963
 30
0.0
 10
72.90198951109085
 20
-101.8880368164963
 30
0.0
 10
74.24513526135487
 20
-103.2311825667623
 30
0.0
 10
74.24513526135487
 20
-104.888036815745
 30
0.0
 10
74.24513526135487
 20
-106.5448910647319
 30
0.0
 10
72.90198951109085
 20
-107.8880368149978
 30
0.0
 10
71.24513526210428
 20
-107.8880368149978
 30
0.0
  0
SPLINE
  5
56
330
1F
100
AcDbEntity
  8
LAYER_1
 62
     1
100
AcDbSpline
210
0.0
220
0.0
230
1.0
 70
    11
 71
     3
 72
    17
 73
    13
 74
     0
 42
0.0000000001
 43
0.0000000001
 12
1.0
 22
0.0
 32
0.0
 13
1.0
 23
0.0
 33
0.0
 40
0.0
 40
0.0
 40
0.0
 40
0.0
 40
1.0
 40
1.0
 40
1.0
 40
2.0
 40
2.0
 40
2.0
 40
3.0
 40
3.0
 40
3.0
 40
4.0
 40
4.0
 40
4.0
 40
4.0
 10
75.74531440294243
 20
-101.1382329623843
 30
0.0
 10
75.33110084069547
 20
-101.1382329623843
 30
0.0
 10
74.99531440313058
 20
-100.8024465248188
 30
0.0
 10
74.99531440313058
 20
-100.388232962568
 30
0.0
 10
74.99531440313058
 20
-99.9740194003236
 30
0.0
 10
75.33110084069547
 20
-99.63823296275807
 30
0.0
 10
75.74531440294243
 20
-99.63823296275807
 30
0.0
 10
76.1595279651894
 20
-99.63823296275807
 30
0.0
 10
76.49531440275652
 20
-99.9740194003236
 30
0.0
 10
76.49531440275652
 20
-100.388232962568
 30
0.0
 10
76.49531440275652
 20
-100.8024465248188
 30
0.0
 10
76.1595279651894
 20
-101.1382329623843
 30
0.0
 10
75.74531440294243
 20
-101.1382329623843
 30
0.0
  0
SPLINE
  5
57
330
1F
100
AcDbEntity
  8
LAYER_1
 62
     1
100
AcDbSpline
210
0.0
220
0.0
230
1.0
 70
    11
 71
     3
 72
    17
 73
    13
 74
     0
 42
0.0000000001
 43
0.0000000001
 12
1.0
 22
0.0
 32
0.0
 13
1.0
 23
0.0
 33
0.0
 40
0.0
 40
0.0
 40
0.0
 40
0.0
 40
1.0
 40
1.0
 40
1.0
 40
2.0
 40
2.0
 40
2.0
 40
3.0
 40
3.0
 40
3.0
 40
4.0
 40
4.0
 40
4.0
 40
4.0
 10
66.74495612126613
 20
-101.1382329623843
 30
0.0
 10
66.33074255902045
 20
-101.1382329623843
 30
0.0
 10
65.99495612145492
 20
-100.8024465248188
 30
0.0
 10
65.99495612145492
 20
-100.388232962568
 30
0.0
 10
65.99495612145492
 20
-99.9740194003236
 30
0.0
 10
66.33074255902045
 20
-99.63823296275807
 30
0.0
 10
66.74495612126613
 20
-99.63823296275807
 30
0.0
 10
67.15916968351438
 20
-99.63823296275807
 30
0.0
 10
67.49495612107991
 20
-99.9740194003236
 30
0.0
 10
67.49495612107991
 20
-100.388232962568
 30
0.0
 10
67.49495612107991
 20
-100.8024465248188
 30
0.0
 10
67.15916968351438
 20
-101.1382329623843
 30
0.0
 10
66.74495612126613
 20
-101.1382329623843
 30
0.0
  0
SPLINE
  5
58
330
1F
100
AcDbEntity
  8
LAYER_1
 62
     1
100
AcDbSpline
210
0.0
220
0.0
230
1.0
 70
    11
 71
     3
 72
    17
 73
    13
 74
     0
 42
0.0000000001
 43
0.0000000001
 12
1.0
 22
0.0
 32
0.0
 13
1.0
 23
0.0
 33
0.0
 40
0.0
 40
0.0
 40
0.0
 40
0.0
 40
1.0
 40
1.0
 40
1.0
 40
2.0
 40
2.0
 40
2.0
 40
3.0
 40
3.0
 40
3.0
 40
4.0
 40
4.0
 40
4.0
 40
4.0
 10
75.74531440294243
 20
-110.1378406687361
 30
0.0
 10
75.33110084069547
 20
-110.1378406687361
 30
0.0
 10
74.99531440313058
 20
-109.8020542311706
 30
0.0
 10
74.99531440313058
 20
-109.3878406689198
 30
0.0
 10
74.99531440313058
 20
-108.9736271066766
 30
0.0
 10
75.33110084069547
 20
-108.6378406691111
 30
0.0
 10
75.74531440294243
 20
-108.6378406691111
 30
0.0
 10
76.1595279651894
 20
-108.6378406691111
 30
0.0
 10
76.49531440275652
 20
-108.9736271066766
 30
0.0
 10
76.49531440275652
 20
-109.3878406689198
 30
0.0
 10
76.49531440275652
 20
-109.8020542311706
 30
0.0
 10
76.1595279651894
 20
-110.1378406687361
 30
0.0
 10
75.74531440294243
 20
-110.1378406687361
 30
0.0
  0
SPLINE
  5
59
330
1F
100
AcDbEntity
  8
LAYER_1
 62
     1
100
AcDbSpline
210
0.0
220
0.0
230
1.0
 70
    11
 71
     3
 72
    17
 73
    13
 74
     0
 42
0.0000000001
 43
0.0000000001
 12
1.0
 22
0.0
 32
0.0
 13
1.0
 23
0.0
 33
0.0
 40
0.0
 40
0.0
 40
0.0
 40
0.0
 40
1.0
 40
1.0
 40
1.0
 40
2.0
 40
2.0
 40
2.0
 40
3.0
 40
3.0
 40
3.0
 40
4.0
 40
4.0
 40
4.0
 40
4.0
 10
66.74495612126613
 20
-110.1378406687361
 30
0.0
 10
66.33074255902045
 20
-110.1378406687361
 30
0.0
 10
65.99495612145492
 20
-109.8020542311706
 30
0.0
 10
65.99495612145492
 20
-109.3878406689198
 30
0.0
 10
65.99495612145492
 20
-108.9736271066766
 30
0.0
 10
66.33074255902045
 20
-108.6378406691111
 30
0.0
 10
66.74495612126613
 20
-108.6378406691111
 30
0.0
 10
67.15916968351438
 20
-108.6378406691111
 30
0.0
 10
67.49495612107991
 20
-108.9736271066766
 30
0.0
 10
67.49495612107991
 20
-109.3878406689198
 30
0.0
 10
67.49495612107991
 20
-109.8020542311706
 30
0.0
 10
67.15916968351438
 20
-110.1378406687361
 30
0.0
 10
66.74495612126613
 20
-110.1378406687361
 30
0.0
  0
SPLINE
  5
5A
330
1F
100
AcDbEntity
  8
LAYER_1
 62
     1
100
AcDbSpline
210
0.0
220
0.0
230
1.0
 70
    11
 71
     3
 72
    17
 73
    13
 74
     0
 42
0.0000000001
 43
0.0000000001
 12
1.0
 22
0.0
 32
0.0
 13
1.0
 23
0.0
 33
0.0
 40
0.0
 40
0.0
 40
0.0
 40
0.0
 40
1.0
 40
1.0
 40
1.0
 40
2.0
 40
2.0
 40
2.0
 40
3.0
 40
3.0
 40
3.0
 40
4.0
 40
4.0
 40
4.0
 40
4.0
 10
226.243214125334
 20
-107.8880368149978
 30
0.0
 10
224.5863598763487
 20
-107.8880368149978
 30
0.0
 10
223.2432141260853
 20
-106.5448910647319
 30
0.0
 10
223.2432141260853
 20
-104.888036815745
 30
0.0
 10
223.2432141260853
 20
-103.2311825667623
 30
0.0
 10
224.5863598763487
 20
-101.8880368164963
 30
0.0
 10
226.243214125334
 20
-101.8880368164963
 30
0.0
 10
227.9000683743206
 20
-101.8880368164963
 30
0.0
 10
229.2432141245846
 20
-103.2311825667623
 30
0.0
 10
229.2432141245846
 20
-104.888036815745
 30
0.0
 10
229.2432141245846
 20
-106.5448910647319
 30
0.0
 10
227.9000683743206
 20
-107.8880368149978
 30
0.0
 10
226.243214125334
 20
-107.8880368149978
 30
0.0
  0
SPLINE
  5
5B
330
1F
100
AcDbEntity
  8
LAYER_1
 62
     1
100
AcDbSpline
210
0.0
220
0.0
230
1.0
 70
    11
 71
     3
 72
    17
 73
    13
 74
     0
 42
0.0000000001
 43
0.0000000001
 12
1.0
 22
0.0
 32
0.0
 13
1.0
 23
0.0
 33
0.0
 40
0.0
 40
0.0
 40
0.0
 40
0.0
 40
1.0
 40
1.0
 40
1.0
 40
2.0
 40
2.0
 40
2.0
 40
3.0
 40
3.0
 40
3.0
 40
4.0
 40
4.0
 40
4.0
 40
4.0
 10
230.7433932661721
 20
-101.1382329623843
 30
0.0
 10
230.3291797039252
 20
-101.1382329623843
 30
0.0
 10
229.9933932663603
 20
-100.8024465248188
 30
0.0
 10
229.9933932663603
 20
-100.388232962568
 30
0.0
 10
229.9933932663603
 20
-99.9740194003236
 30
0.0
 10
230.3291797039252
 20
-99.63823296275807
 30
0.0
 10
230.7433932661721
 20
-99.63823296275807
 30
0.0
 10
231.1576068284191
 20
-99.63823296275807
 30
0.0
 10
231.4933932659859
 20
-99.9740194003236
 30
0.0
 10
231.4933932659859
 20
-100.388232962568
 30
0.0
 10
231.4933932659859
 20
-100.8024465248188
 30
0.0
 10
231.1576068284191
 20
-101.1382329623843
 30
0.0
 10
230.7433932661721
 20
-101.1382329623843
 30
0.0
  0
SPLINE
  5
5C
330
1F
100
AcDbEntity
  8
LAYER_1
 62
     1
100
AcDbSpline
210
0.0
220
0.0
230
1.0
 70
    11
 71
     3
 72
    17
 73
    13
 74
     0
 42
0.0000000001
 43
0.0000000001
 12
1.0
 22
0.0
 32
0.0
 13
1.0
 23
0.0
 33
0.0
 40
0.0
 40
0.0
 40
0.0
 40
0.0
 40
1.0
 40
1.0
 40
1.0
 40
2.0
 40
2.0
 40
2.0
 40
3.0
 40
3.0
 40
3.0
 40
4.0
 40
4.0
 40
4.0
 40
4.0
 10
221.7430349844958
 20
-101.1382329623843
 30
0.0
 10
221.3288214222502
 20
-101.1382329623843
 30
0.0
 10
220.9930349846846
 20
-100.8024465248188
 30
0.0
 10
220.9930349846846
 20
-100.388232962568
 30
0.0
 10
220.9930349846846
 20
-99.9740194003236
 30
0.0
 10
221.3288214222502
 20
-99.63823296275807
 30
0.0
 10
221.7430349844958
 20
-99.63823296275807
 30
0.0
 10
222.1572485467441
 20
-99.63823296275807
 30
0.0
 10
222.4930349843096
 20
-99.9740194003236
 30
0.0
 10
222.4930349843096
 20
-100.388232962568
 30
0.0
 10
222.4930349843096
 20
-100.8024465248188
 30
0.0
 10
222.1572485467441
 20
-101.1382329623843
 30
0.0
 10
221.7430349844958
 20
-101.1382329623843
 30
0.0
  0
SPLINE
  5
5D
330
1F
100
AcDbEntity
  8
LAYER_1
 62
     1
100
AcDbSpline
210
0.0
220
0.0
230
1.0
 70
    11
 71
     3
 72
    17
 73
    13
 74
     0
 42
0.0000000001
 43
0.0000000001
 12
1.0
 22
0.0
 32
0.0
 13
1.0
 23
0.0
 33
0.0
 40
0.0
 40
0.0
 40
0.0
 40
0.0
 40
1.0
 40
1.0
 40
1.0
 40
2.0
 40
2.0
 40
2.0
 40
3.0
 40
3.0
 40
3.0
 40
4.0
 40
4.0
 40
4.0
 40
4.0
 10
230.7433932661721
 20
-110.1378406687361
 30
0.0
 10
230.3291797039252
 20
-110.1378406687361
 30
0.0
 10
229.9933932663603
 20
-109.8020542311706
 30
0.0
 10
229.9933932663603
 20
-109.3878406689198
 30
0.0
 10
229.9933932663603
 20
-108.9736271066766
 30
0.0
 10
230.3291797039252
 20
-108.6378406691111
 30
0.0
 10
230.7433932661721
 20
-108.6378406691111
 30
0.0
 10
231.1576068284191
 20
-108.6378406691111
 30
0.0
 10
231.4933932659859
 20
-108.9736271066766
 30
0.0
 10
231.4933932659859
 20
-109.3878406689198
 30
0.0
 10
231.4933932659859
 20
-109.8020542311706
 30
0.0
 10
231.1576068284191
 20
-110.1378406687361
 30
0.0
 10
230.7433932661721
 20
-110.1378406687361
 30
0.0
  0
SPLINE
  5
5E
330
1F
100
AcDbEntity
  8
LAYER_1
 62
     1
100
AcDbSpline
210
0.0
220
0.0
230
1.0
 70
    11
 71
     3
 72
    17
 73
    13
 74
     0
 42
0.0000000001
 43
0.0000000001
 12
1.0
 22
0.0
 32
0.0
 13
1.0
 23
0.0
 33
0.0
 40
0.0
 40
0.0
 40
0.0
 40
0.0
 40
1.0
 40
1.0
 40
1.0
 40
2.0
 40
2.0
 40
2.0
 40
3.0
 40
3.0
 40
3.0
 40
4.0
 40
4.0
 40
4.0
 40
4.0
 10
221.7430349844958
 20
-110.1378406687361
 30
0.0
 10
221.3288214222502
 20
-110.1378406687361
 30
0.0
 10
220.9930349846846
 20
-109.8020542311706
 30
0.0
 10
220.9930349846846
 20
-109.3878406689198
 30
0.0
 10
220.9930349846846
 20
-108.9736271066766
 30
0.0
 10
221.3288214222502
 20
-108.6378406691111
 30
0.0
 10
221.7430349844958
 20
-108.6378406691111
 30
0.0
 10
222.1572485467441
 20
-108.6378406691111
 30
0.0
 10
222.4930349843096
 20
-108.9736271066766
 30
0.0
 10
222.4930349843096
 20
-109.3878406689198
 30
0.0
 10
222.4930349843096
 20
-109.8020542311706
 30
0.0
 10
222.1572485467441
 20
-110.1378406687361
 30
0.0
 10
221.7430349844958
 20
-110.1378406687361
 30
0.0
  0
SPLINE
  5
5F
330
1F
100
AcDbEntity
  8
LAYER_1
 62
     3
100
AcDbSpline
210
0.0
220
0.0
230
1.0
 70
    11
 71
     3
 72
    35
 73
    31
 74
     0
 42
0.0000000001
 43
0.0000000001
 12
1.0
 22
0.0
 32
0.0
 13
1.0
 23
0.0
 33
0.0
 40
0.0
 40
0.0
 40
0.0
 40
0.0
 40
1.0
 40
1.0
 40
1.0
 40
2.0
 40
2.0
 40
2.0
 40
3.0
 40
3.0
 40
3.0
 40
4.0
 40
4.0
 40
4.0
 40
5.0
 40
5.0
 40
5.0
 40
6.0
 40
6.0
 40
6.0
 40
7.0
 40
7.0
 40
7.0
 40
8.0
 40
8.0
 40
8.0
 40
9.0
 40
9.0
 40
9.0
 40
10.0
 40
10.0
 40
10.0
 40
10.0
 10
153.9868460623115
 20
-65.56371429927651
 30
0.0
 10
153.9382702159695
 20
-65.58903575109309
 30
0.0
 10
153.8300942177327
 20
-65.62296994162281
 30
0.0
 10
153.6926349078712
 20
-65.62296994162281
 30
0.0
 10
153.3839543523928
 20
-65.62296994162281
 30
0.0
 10
153.1827607760542
 20
-65.41350813611962
 30
0.0
 10
153.1827607760542
 20
-65.1003489565104
 30
0.0
 10
153.1827607760542
 20
-64.78512271961004
 30
0.0
 10
153.3987682629794
 20
-64.55671288893798
 30
0.0
 10
153.7329425250486
 20
-64.55671288893798
 30
0.0
 10
153.8428410710281
 20
-64.55671288893798
 30
0.0
 10
153.9403372732606
 20
-64.58427365281999
 30
0.0
 10
153.9909801768938
 20
-64.60959510463657
 30
0.0
 10
153.9909801768938
 20
-64.60959510463657
 30
0.0
 10
153.9486055024252
 20
-64.75342784114575
 30
0.0
 10
153.9486055024252
 20
-64.75342784114575
 30
0.0
 10
153.9041637706655
 20
-64.72810638932916
 30
0.0
 10
153.8345728418635
 20
-64.70485199480373
 30
0.0
 10
153.7329425250486
 20
-64.70485199480373
 30
0.0
 10
153.4979870129546
 20
-64.70485199480373
 30
0.0
 10
153.3712074990974
 20
-64.87831255248605
 30
0.0
 10
153.3712074990974
 20
-65.09190847257155
 30
0.0
 10
153.3712074990974
 20
-65.32893104195674
 30
0.0
 10
153.5234807195454
 20
-65.47483083575706
 30
0.0
 10
153.7263968436266
 20
-65.47483083575706
 30
0.0
 10
153.8325057845723
 20
-65.47483083575706
 30
0.0
 10
153.9020967133744
 20
-65.44727007187507
 30
0.0
 10
153.9551511838472
 20
-65.42401567734963
 30
0.0
 10
153.9551511838472
 20
-65.42401567734963
 30
0.0
 10
153.9868460623115
 20
-65.56371429927651
 30
0.0
 10
153.9868460623115
 20
-65.56371429927651
 30
0.0
  0
SPLINE
  5
60
330
1F
100
AcDbEntity
  8
LAYER_1
 62
     3
100
AcDbSpline
210
0.0
220
0.0
230
1.0
 70
    11
 71
     3
 72
    44
 73
    40
 74
     0
 42
0.0000000001
 43
0.0000000001
 12
1.0
 22
0.0
 32
0.0
 13
1.0
 23
0.0
 33
0.0
 40
0.0
 40
0.0
 40
0.0
 40
0.0
 40
1.0
 40
1.0
 40
1.0
 40
2.0
 40
2.0
 40
2.0
 40
3.0
 40
3.0
 40
3.0
 40
4.0
 40
4.0
 40
4.0
 40
5.0
 40
5.0
 40
5.0
 40
6.0
 40
6.0
 40
6.0
 40
7.0
 40
7.0
 40
7.0
 40
8.0
 40
8.0
 40
8.0
 40
9.0
 40
9.0
 40
9.0
 40
10.0
 40
10.0
 40
10.0
 40
11.0
 40
11.0
 40
11.0
 40
12.0
 40
12.0
 40
12.0
 40
13.0
 40
13.0
 40
13.0
 40
13.0
 10
154.2049206065278
 20
-64.89726057765493
 30
0.0
 10
154.2049206065278
 20
-64.77668223567119
 30
0.0
 10
154.2028535492367
 20
-64.67315711633942
 30
0.0
 10
154.1966523773632
 20
-64.57790022617228
 30
0.0
 10
154.1966523773632
 20
-64.57790022617228
 30
0.0
 10
154.3596053938155
 20
-64.57790022617228
 30
0.0
 10
154.3596053938155
 20
-64.57790022617228
 30
0.0
 10
154.3596053938155
 20
-64.57790022617228
 30
0.0
 10
154.365806565689
 20
-64.7789215477366
 30
0.0
 10
154.365806565689
 20
-64.7789215477366
 30
0.0
 10
154.365806565689
 20
-64.7789215477366
 30
0.0
 10
154.3744193044021
 20
-64.7789215477366
 30
0.0
 10
154.3744193044021
 20
-64.7789215477366
 30
0.0
 10
154.420928093453
 20
-64.64128998310086
 30
0.0
 10
154.5328936967236
 20
-64.55464583164684
 30
0.0
 10
154.6576061532897
 20
-64.55464583164684
 30
0.0
 10
154.6789657452982
 20
-64.55464583164684
 30
0.0
 10
154.6937796558848
 20
-64.55671288893798
 30
0.0
 10
154.7106606237625
 20
-64.56101925829455
 30
0.0
 10
154.7106606237625
 20
-64.56101925829455
 30
0.0
 10
154.7106606237625
 20
-64.73654687326803
 30
0.0
 10
154.7106606237625
 20
-64.73654687326803
 30
0.0
 10
154.6917125985936
 20
-64.73224050391146
 30
0.0
 10
154.6724200638762
 20
-64.73017344662031
 30
0.0
 10
154.6472708668339
 20
-64.73017344662031
 30
0.0
 10
154.5160127288459
 20
-64.73017344662031
 30
0.0
 10
154.4229951507442
 20
-64.82956445136978
 30
0.0
 10
154.3975014441533
 20
-64.96926307329664
 30
0.0
 10
154.393367329571
 20
-64.99458452511324
 30
0.0
 10
154.3888887054402
 20
-65.02421234628639
 30
0.0
 10
154.3888887054402
 20
-65.05590722475068
 30
0.0
 10
154.3888887054402
 20
-65.05590722475068
 30
0.0
 10
154.3888887054402
 20
-65.60178260438852
 30
0.0
 10
154.3888887054402
 20
-65.60178260438852
 30
0.0
 10
154.3888887054402
 20
-65.60178260438852
 30
0.0
 10
154.2049206065278
 20
-65.60178260438852
 30
0.0
 10
154.2049206065278
 20
-65.60178260438852
 30
0.0
 10
154.2049206065278
 20
-65.60178260438852
 30
0.0
 10
154.2049206065278
 20
-64.89726057765493
 30
0.0
 10
154.2049206065278
 20
-64.89726057765493
 30
0.0
  0
SPLINE
  5
61
330
1F
100
AcDbEntity
  8
LAYER_1
 62
     3
100
AcDbSpline
210
0.0
220
0.0
230
1.0
 70
    11
 71
     3
 72
    17
 73
    13
 74
     0
 42
0.0000000001
 43
0.0000000001
 12
1.0
 22
0.0
 32
0.0
 13
1.0
 23
0.0
 33
0.0
 40
0.0
 40
0.0
 40
0.0
 40
0.0
 40
1.0
 40
1.0
 40
1.0
 40
2.0
 40
2.0
 40
2.0
 40
3.0
 40
3.0
 40
3.0
 40
4.0
 40
4.0
 40
4.0
 40
4.0
 10
155.1130477764397
 20
-64.29023475315391
 30
0.0
 10
155.1151148337308
 20
-64.35362451008251
 30
0.0
 10
155.06860604468
 20
-64.40443966848994
 30
0.0
 10
154.9945364917471
 20
-64.40443966848994
 30
0.0
 10
154.9290796775273
 20
-64.40443966848994
 30
0.0
 10
154.8825708884765
 20
-64.35362451008251
 30
0.0
 10
154.8825708884765
 20
-64.29023475315391
 30
0.0
 10
154.8825708884765
 20
-64.2246056841599
 30
0.0
 10
154.9311467348185
 20
-64.17379052575247
 30
0.0
 10
154.9986706063294
 20
-64.17379052575247
 30
0.0
 10
155.06860604468
 20
-64.17379052575247
 30
0.0
 10
155.1130477764397
 20
-64.2246056841599
 30
0.0
 10
155.1130477764397
 20
-64.29023475315391
 30
0.0
  0
POLYLINE
  5
62
330
1F
100
AcDbEntity
  8
LAYER_1
 62
     3
100
AcDb2dPolyline
 66
     1
 10
0.0
 20
0.0
 30
0.0
  0
VERTEX
  5
63
330
62
100
AcDbEntity
  8
LAYER_1
 62
     3
100
AcDbVertex
100
AcDb2dVertex
 10
154.9056530282276
 20
-65.60178260438852
 30
0.0
  0
VERTEX
  5
64
330
62
100
AcDbEntity
  8
LAYER_1
 62
     3
100
AcDbVertex
100
AcDb2dVertex
 10
154.9056530282276
 20
-64.57790022617228
 30
0.0
  0
VERTEX
  5
65
330
62
100
AcDbEntity
  8
LAYER_1
 62
     3
100
AcDbVertex
100
AcDb2dVertex
 10
155.0920326939797
 20
-64.57790022617228
 30
0.0
  0
VERTEX
  5
66
330
62
100
AcDbEntity
  8
LAYER_1
 62
     3
100
AcDbVertex
100
AcDb2dVertex
 10
155.0920326939797
 20
-65.60178260438852
 30
0.0
  0
VERTEX
  5
67
330
62
100
AcDbEntity
  8
LAYER_1
 62
     3
100
AcDbVertex
100
AcDb2dVertex
 10
154.9056530282276
 20
-65.60178260438852
 30
0.0
  0
SEQEND
  5
68
330
62
100
AcDbEntity
  8
LAYER_1
 62
     3
  0
SPLINE
  5
69
330
1F
100
AcDbEntity
  8
LAYER_1
 62
     3
100
AcDbSpline
210
0.0
220
0.0
230
1.0
 70
    11
 71
     3
 72
    35
 73
    31
 74
     0
 42
0.0000000001
 43
0.0000000001
 12
1.0
 22
0.0
 32
0.0
 13
1.0
 23
0.0
 33
0.0
 40
0.0
 40
0.0
 40
0.0
 40
0.0
 40
1.0
 40
1.0
 40
1.0
 40
2.0
 40
2.0
 40
2.0
 40
3.0
 40
3.0
 40
3.0
 40
4.0
 40
4.0
 40
4.0
 40
5.0
 40
5.0
 40
5.0
 40
6.0
 40
6.0
 40
6.0
 40
7.0
 40
7.0
 40
7.0
 40
8.0
 40
8.0
 40
8.0
 40
9.0
 40
9.0
 40
9.0
 40
10.0
 40
10.0
 40
10.0
 40
10.0
 10
156.131073492331
 20
-65.56371429927651
 30
0.0
 10
156.082497645989
 20
-65.58903575109309
 30
0.0
 10
155.9743216477522
 20
-65.62296994162281
 30
0.0
 10
155.8368623378907
 20
-65.62296994162281
 30
0.0
 10
155.5281817824123
 20
-65.62296994162281
 30
0.0
 10
155.3269882060737
 20
-65.41350813611962
 30
0.0
 10
155.3269882060737
 20
-65.1003489565104
 30
0.0
 10
155.3269882060737
 20
-64.78512271961004
 30
0.0
 10
155.5429956929989
 20
-64.55671288893798
 30
0.0
 10
155.8771699550681
 20
-64.55671288893798
 30
0.0
 10
155.9870685010476
 20
-64.55671288893798
 30
0.0
 10
156.0845647032801
 20
-64.58427365281999
 30
0.0
 10
156.1352076069133
 20
-64.60959510463657
 30
0.0
 10
156.1352076069133
 20
-64.60959510463657
 30
0.0
 10
156.0928329324447
 20
-64.75342784114575
 30
0.0
 10
156.0928329324447
 20
-64.75342784114575
 30
0.0
 10
156.048391200685
 20
-64.72810638932916
 30
0.0
 10
155.978800271883
 20
-64.70485199480373
 30
0.0
 10
155.8771699550681
 20
-64.70485199480373
 30
0.0
 10
155.6422144429741
 20
-64.70485199480373
 30
0.0
 10
155.5154349291169
 20
-64.87831255248605
 30
0.0
 10
155.5154349291169
 20
-65.09190847257155
 30
0.0
 10
155.5154349291169
 20
-65.32893104195674
 30
0.0
 10
155.6677081495649
 20
-65.47483083575706
 30
0.0
 10
155.8706242736461
 20
-65.47483083575706
 30
0.0
 10
155.9767332145918
 20
-65.47483083575706
 30
0.0
 10
156.0463241433939
 20
-65.44727007187507
 30
0.0
 10
156.0993786138667
 20
-65.42401567734963
 30
0.0
 10
156.0993786138667
 20
-65.42401567734963
 30
0.0
 10
156.131073492331
 20
-65.56371429927651
 30
0.0
 10
156.131073492331
 20
-65.56371429927651
 30
0.0
  0
SPLINE
  5
6A
330
1F
100
AcDbEntity
  8
LAYER_1
 62
     3
100
AcDbSpline
210
0.0
220
0.0
230
1.0
 70
    11
 71
     3
 72
    47
 73
    43
 74
     0
 42
0.0000000001
 43
0.0000000001
 12
1.0
 22
0.0
 32
0.0
 13
1.0
 23
0.0
 33
0.0
 40
0.0
 40
0.0
 40
0.0
 40
0.0
 40
1.0
 40
1.0
 40
1.0
 40
2.0
 40
2.0
 40
2.0
 40
3.0
 40
3.0
 40
3.0
 40
4.0
 40
4.0
 40
4.0
 40
5.0
 40
5.0
 40
5.0
 40
6.0
 40
6.0
 40
6.0
 40
7.0
 40
7.0
 40
7.0
 40
8.0
 40
8.0
 40
8.0
 40
9.0
 40
9.0
 40
9.0
 40
10.0
 40
10.0
 40
10.0
 40
11.0
 40
11.0
 40
11.0
 40
12.0
 40
12.0
 40
12.0
 40
13.0
 40
13.0
 40
13.0
 40
14.0
 40
14.0
 40
14.0
 40
14.0
 10
156.5338051545567
 20
-65.04746674081183
 30
0.0
 10
156.5338051545567
 20
-65.04746674081183
 30
0.0
 10
156.537939269139
 20
-65.04746674081183
 30
0.0
 10
156.537939269139
 20
-65.04746674081183
 30
0.0
 10
156.5630884661813
 20
-65.01163774776522
 30
0.0
 10
156.5992619687765
 20
-64.9671960160055
 30
0.0
 10
156.6288897899496
 20
-64.93119476818464
 30
0.0
 10
156.6288897899496
 20
-64.93119476818464
 30
0.0
 10
156.9293021162634
 20
-64.57790022617228
 30
0.0
 10
156.9293021162634
 20
-64.57790022617228
 30
0.0
 10
156.9293021162634
 20
-64.57790022617228
 30
0.0
 10
157.1535778323532
 20
-64.57790022617228
 30
0.0
 10
157.1535778323532
 20
-64.57790022617228
 30
0.0
 10
157.1535778323532
 20
-64.57790022617228
 30
0.0
 10
156.757736361098
 20
-64.9988908944698
 30
0.0
 10
156.757736361098
 20
-64.9988908944698
 30
0.0
 10
156.757736361098
 20
-64.9988908944698
 30
0.0
 10
157.2083548505686
 20
-65.60178260438852
 30
0.0
 10
157.2083548505686
 20
-65.60178260438852
 30
0.0
 10
157.2083548505686
 20
-65.60178260438852
 30
0.0
 10
156.9820120771877
 20
-65.60178260438852
 30
0.0
 10
156.9820120771877
 20
-65.60178260438852
 30
0.0
 10
156.9820120771877
 20
-65.60178260438852
 30
0.0
 10
156.6288897899496
 20
-65.11102875251468
 30
0.0
 10
156.6288897899496
 20
-65.11102875251468
 30
0.0
 10
156.6288897899496
 20
-65.11102875251468
 30
0.0
 10
156.5338051545567
 20
-65.21679318391185
 30
0.0
 10
156.5338051545567
 20
-65.21679318391185
 30
0.0
 10
156.5338051545567
 20
-65.21679318391185
 30
0.0
 10
156.5338051545567
 20
-65.60178260438852
 30
0.0
 10
156.5338051545567
 20
-65.60178260438852
 30
0.0
 10
156.5338051545567
 20
-65.60178260438852
 30
0.0
 10
156.3494925460959
 20
-65.60178260438852
 30
0.0
 10
156.3494925460959
 20
-65.60178260438852
 30
0.0
 10
156.3494925460959
 20
-65.60178260438852
 30
0.0
 10
156.3494925460959
 20
-64.0997209728196
 30
0.0
 10
156.3494925460959
 20
-64.0997209728196
 30
0.0
 10
156.3494925460959
 20
-64.0997209728196
 30
0.0
 10
156.5338051545567
 20
-64.0997209728196
 30
0.0
 10
156.5338051545567
 20
-64.0997209728196
 30
0.0
 10
156.5338051545567
 20
-64.0997209728196
 30
0.0
 10
156.5338051545567
 20
-65.04746674081183
 30
0.0
 10
156.5338051545567
 20
-65.04746674081183
 30
0.0
  0
SPLINE
  5
6B
330
1F
100
AcDbEntity
  8
LAYER_1
 62
     3
100
AcDbSpline
210
0.0
220
0.0
230
1.0
 70
    11
 71
     3
 72
    17
 73
    13
 74
     0
 42
0.0000000001
 43
0.0000000001
 12
1.0
 22
0.0
 32
0.0
 13
1.0
 23
0.0
 33
0.0
 40
0.0
 40
0.0
 40
0.0
 40
0.0
 40
1.0
 40
1.0
 40
1.0
 40
2.0
 40
2.0
 40
2.0
 40
3.0
 40
3.0
 40
3.0
 40
4.0
 40
4.0
 40
4.0
 40
4.0
 10
157.5855928062035
 20
-64.29023475315391
 30
0.0
 10
157.5876598634947
 20
-64.35362451008251
 30
0.0
 10
157.5411510744438
 20
-64.40443966848994
 30
0.0
 10
157.4670815215109
 20
-64.40443966848994
 30
0.0
 10
157.4016247072911
 20
-64.40443966848994
 30
0.0
 10
157.3551159182403
 20
-64.35362451008251
 30
0.0
 10
157.3551159182403
 20
-64.29023475315391
 30
0.0
 10
157.3551159182403
 20
-64.2246056841599
 30
0.0
 10
157.4036917645823
 20
-64.17379052575247
 30
0.0
 10
157.4712156360932
 20
-64.17379052575247
 30
0.0
 10
157.5411510744438
 20
-64.17379052575247
 30
0.0
 10
157.5855928062035
 20
-64.2246056841599
 30
0.0
 10
157.5855928062035
 20
-64.29023475315391
 30
0.0
  0
POLYLINE
  5
6C
330
1F
100
AcDbEntity
  8
LAYER_1
 62
     3
100
AcDb2dPolyline
 66
     1
 10
0.0
 20
0.0
 30
0.0
  0
VERTEX
  5
6D
330
6C
100
AcDbEntity
  8
LAYER_1
 62
     3
100
AcDbVertex
100
AcDb2dVertex
 10
157.3781980579915
 20
-65.60178260438852
 30
0.0
  0
VERTEX
  5
6E
330
6C
100
AcDbEntity
  8
LAYER_1
 62
     3
100
AcDbVertex
100
AcDb2dVertex
 10
157.3781980579915
 20
-64.57790022617228
 30
0.0
  0
VERTEX
  5
6F
330
6C
100
AcDbEntity
  8
LAYER_1
 62
     3
100
AcDbVertex
100
AcDb2dVertex
 10
157.5645777237435
 20
-64.57790022617228
 30
0.0
  0
VERTEX
  5
70
330
6C
100
AcDbEntity
  8
LAYER_1
 62
     3
100
AcDbVertex
100
AcDb2dVertex
 10
157.5645777237435
 20
-65.60178260438852
 30
0.0
  0
VERTEX
  5
71
330
6C
100
AcDbEntity
  8
LAYER_1
 62
     3
100
AcDbVertex
100
AcDb2dVertex
 10
157.3781980579915
 20
-65.60178260438852
 30
0.0
  0
SEQEND
  5
72
330
6C
100
AcDbEntity
  8
LAYER_1
 62
     3
  0
SPLINE
  5
73
330
1F
100
AcDbEntity
  8
LAYER_1
 62
     3
100
AcDbSpline
210
0.0
220
0.0
230
1.0
 70
    11
 71
     3
 72
    56
 73
    52
 74
     0
 42
0.0000000001
 43
0.0000000001
 12
1.0
 22
0.0
 32
0.0
 13
1.0
 23
0.0
 33
0.0
 40
0.0
 40
0.0
 40
0.0
 40
0.0
 40
1.0
 40
1.0
 40
1.0
 40
2.0
 40
2.0
 40
2.0
 40
3.0
 40
3.0
 40
3.0
 40
4.0
 40
4.0
 40
4.0
 40
5.0
 40
5.0
 40
5.0
 40
6.0
 40
6.0
 40
6.0
 40
7.0
 40
7.0
 40
7.0
 40
8.0
 40
8.0
 40
8.0
 40
9.0
 40
9.0
 40
9.0
 40
10.0
 40
10.0
 40
10.0
 40
11.0
 40
11.0
 40
11.0
 40
12.0
 40
12.0
 40
12.0
 40
13.0
 40
13.0
 40
13.0
 40
14.0
 40
14.0
 40
14.0
 40
15.0
 40
15.0
 40
15.0
 40
16.0
 40
16.0
 40
16.0
 40
17.0
 40
17.0
 40
17.0
 40
17.0
 10
158.0978785048601
 20
-64.2838613265062
 30
0.0
 10
158.0978785048601
 20
-64.2838613265062
 30
0.0
 10
158.0978785048601
 20
-64.57790022617228
 30
0.0
 10
158.0978785048601
 20
-64.57790022617228
 30
0.0
 10
158.0978785048601
 20
-64.57790022617228
 30
0.0
 10
158.3645288954185
 20
-64.57790022617228
 30
0.0
 10
158.3645288954185
 20
-64.57790022617228
 30
0.0
 10
158.3645288954185
 20
-64.57790022617228
 30
0.0
 10
158.3645288954185
 20
-64.7196659053903
 30
0.0
 10
158.3645288954185
 20
-64.7196659053903
 30
0.0
 10
158.3645288954185
 20
-64.7196659053903
 30
0.0
 10
158.0978785048601
 20
-64.7196659053903
 30
0.0
 10
158.0978785048601
 20
-64.7196659053903
 30
0.0
 10
158.0978785048601
 20
-64.7196659053903
 30
0.0
 10
158.0978785048601
 20
-65.27174245690159
 30
0.0
 10
158.0978785048601
 20
-65.27174245690159
 30
0.0
 10
158.0978785048601
 20
-65.39869422553305
 30
0.0
 10
158.1340520074553
 20
-65.47069672117476
 30
0.0
 10
158.2374048720128
 20
-65.47069672117476
 30
0.0
 10
158.2863252279033
 20
-65.47069672117476
 30
0.0
 10
158.3221542209499
 20
-65.46432329452705
 30
0.0
 10
158.3455808702496
 20
-65.45794986787934
 30
0.0
 10
158.3455808702496
 20
-65.45794986787934
 30
0.0
 10
158.3538490994142
 20
-65.59747623503196
 30
0.0
 10
158.3538490994142
 20
-65.59747623503196
 30
0.0
 10
158.3180201063676
 20
-65.61229014561853
 30
0.0
 10
158.2608315213125
 20
-65.62296994162281
 30
0.0
 10
158.1888290256707
 20
-65.62296994162281
 30
0.0
 10
158.1020126194425
 20
-65.62296994162281
 30
0.0
 10
158.0324216906404
 20
-65.5954091777408
 30
0.0
 10
157.9879799588807
 20
-65.54459401933337
 30
0.0
 10
157.9349254884078
 20
-65.48964474634364
 30
0.0
 10
157.915977463239
 20
-65.39869422553305
 30
0.0
 10
157.915977463239
 20
-65.2781158835493
 30
0.0
 10
157.915977463239
 20
-65.2781158835493
 30
0.0
 10
157.915977463239
 20
-64.7196659053903
 30
0.0
 10
157.915977463239
 20
-64.7196659053903
 30
0.0
 10
157.915977463239
 20
-64.7196659053903
 30
0.0
 10
157.7575030709175
 20
-64.7196659053903
 30
0.0
 10
157.7575030709175
 20
-64.7196659053903
 30
0.0
 10
157.7575030709175
 20
-64.7196659053903
 30
0.0
 10
157.7575030709175
 20
-64.57790022617228
 30
0.0
 10
157.7575030709175
 20
-64.57790022617228
 30
0.0
 10
157.7575030709175
 20
-64.57790022617228
 30
0.0
 10
157.915977463239
 20
-64.57790022617228
 30
0.0
 10
157.915977463239
 20
-64.57790022617228
 30
0.0
 10
157.915977463239
 20
-64.57790022617228
 30
0.0
 10
157.915977463239
 20
-64.33243717284822
 30
0.0
 10
157.915977463239
 20
-64.33243717284822
 30
0.0
 10
157.915977463239
 20
-64.33243717284822
 30
0.0
 10
158.0978785048601
 20
-64.2838613265062
 30
0.0
 10
158.0978785048601
 20
-64.2838613265062
 30
0.0
  0
SPLINE
  5
74
330
1F
100
AcDbEntity
  8
LAYER_1
 62
     1
100
AcDbSpline
210
0.0
220
0.0
230
1.0
 70
    11
 71
     3
 72
    17
 73
    13
 74
     0
 42
0.0000000001
 43
0.0000000001
 12
1.0
 22
0.0
 32
0.0
 13
1.0
 23
0.0
 33
0.0
 40
0.0
 40
0.0
 40
0.0
 40
0.0
 40
1.0
 40
1.0
 40
1.0
 40
2.0
 40
2.0
 40
2.0
 40
3.0
 40
3.0
 40
3.0
 40
4.0
 40
4.0
 40
4.0
 40
4.0
 10
142.0389664666463
 20
-93.44274450096361
 30
0.0
 10
142.0389664666463
 20
-92.61435174431989
 30
0.0
 10
141.3673481334841
 20
-91.94273342812097
 30
0.0
 10
140.5389906336914
 20
-91.94273342812097
 30
0.0
 10
139.7105978561174
 20
-91.94273342812097
 30
0.0
 10
139.0389795229519
 20
-92.61435174431989
 30
0.0
 10
139.0389795229519
 20
-93.44274450096361
 30
0.0
 10
139.0389795229519
 20
-94.27127361376346
 30
0.0
 10
139.7105978561174
 20
-94.94271555803938
 30
0.0
 10
140.5389906336914
 20
-94.94271555803938
 30
0.0
 10
141.3673481334841
 20
-94.94271555803938
 30
0.0
 10
142.0389664666463
 20
-94.27127361376346
 30
0.0
 10
142.0389664666463
 20
-93.44274450096361
 30
0.0
  0
SPLINE
  5
75
330
1F
100
AcDbEntity
  8
LAYER_1
 62
     1
100
AcDbSpline
210
0.0
220
0.0
230
1.0
 70
    11
 71
     3
 72
    17
 73
    13
 74
     0
 42
0.0000000001
 43
0.0000000001
 12
1.0
 22
0.0
 32
0.0
 13
1.0
 23
0.0
 33
0.0
 40
0.0
 40
0.0
 40
0.0
 40
0.0
 40
1.0
 40
1.0
 40
1.0
 40
2.0
 40
2.0
 40
2.0
 40
3.0
 40
3.0
 40
3.0
 40
4.0
 40
4.0
 40
4.0
 40
4.0
 10
200.0388786743686
 20
-93.44274450096361
 30
0.0
 10
200.0388786743686
 20
-92.61435174431989
 30
0.0
 10
199.367436730092
 20
-91.94273342812097
 30
0.0
 10
198.5389028414137
 20
-91.94273342812097
 30
0.0
 10
197.710510063839
 20
-91.94273342812097
 30
0.0
 10
197.0388917306736
 20
-92.61435174431989
 30
0.0
 10
197.0388917306736
 20
-93.44274450096361
 30
0.0
 10
197.0388917306736
 20
-94.27127361376346
 30
0.0
 10
197.710510063839
 20
-94.94271555803938
 30
0.0
 10
198.5389028414137
 20
-94.94271555803938
 30
0.0
 10
199.367436730092
 20
-94.94271555803938
 30
0.0
 10
200.0388786743686
 20
-94.27127361376346
 30
0.0
 10
200.0388786743686
 20
-93.44274450096361
 30
0.0
  0
SPLINE
  5
76
330
1F
100
AcDbEntity
  8
LAYER_1
 62
     1
100
AcDbSpline
210
0.0
220
0.0
230
1.0
 70
    11
 71
     3
 72
    17
 73
    13
 74
     0
 42
0.0000000001
 43
0.0000000001
 12
1.0
 22
0.0
 32
0.0
 13
1.0
 23
0.0
 33
0.0
 40
0.0
 40
0.0
 40
0.0
 40
0.0
 40
1.0
 40
1.0
 40
1.0
 40
2.0
 40
2.0
 40
2.0
 40
3.0
 40
3.0
 40
3.0
 40
4.0
 40
4.0
 40
4.0
 40
4.0
 10
141.5389392445522
 20
-116.4428714940424
 30
0.0
 10
141.5389392445522
 20
-115.6143376262912
 30
0.0
 10
140.8674620224942
 20
-114.9428956989766
 30
0.0
 10
140.0389281338163
 20
-114.9428956989766
 30
0.0
 10
139.2105706340201
 20
-114.9428956989766
 30
0.0
 10
138.5389523008546
 20
-115.6143376262912
 30
0.0
 10
138.5389523008546
 20
-116.4428714940424
 30
0.0
 10
138.5389523008546
 20
-117.2712558302356
 30
0.0
 10
139.2105706340201
 20
-117.942882566885
 30
0.0
 10
140.0389281338163
 20
-117.942882566885
 30
0.0
 10
140.8674620224942
 20
-117.942882566885
 30
0.0
 10
141.5389392445522
 20
-117.2712558302356
 30
0.0
 10
141.5389392445522
 20
-116.4428714940424
 30
0.0
  0
SPLINE
  5
77
330
1F
100
AcDbEntity
  8
LAYER_1
 62
     1
100
AcDbSpline
210
0.0
220
0.0
230
1.0
 70
    11
 71
     3
 72
    17
 73
    13
 74
     0
 42
0.0000000001
 43
0.0000000001
 12
1.0
 22
0.0
 32
0.0
 13
1.0
 23
0.0
 33
0.0
 40
0.0
 40
0.0
 40
0.0
 40
0.0
 40
1.0
 40
1.0
 40
1.0
 40
2.0
 40
2.0
 40
2.0
 40
3.0
 40
3.0
 40
3.0
 40
4.0
 40
4.0
 40
4.0
 40
4.0
 10
197.5389542305491
 20
-116.4428714940424
 30
0.0
 10
197.5389542305491
 20
-115.6143376262912
 30
0.0
 10
198.2105725637145
 20
-114.9428956989766
 30
0.0
 10
199.038930063511
 20
-114.9428956989766
 30
0.0
 10
199.8673228410811
 20
-114.9428956989766
 30
0.0
 10
200.5389411742466
 20
-115.6143376262912
 30
0.0
 10
200.5389411742466
 20
-116.4428714940424
 30
0.0
 10
200.5389411742466
 20
-117.2712558302356
 30
0.0
 10
199.8673228410811
 20
-117.942882566885
 30
0.0
 10
199.038930063511
 20
-117.942882566885
 30
0.0
 10
198.2105725637145
 20
-117.942882566885
 30
0.0
 10
197.5389542305491
 20
-117.2712558302356
 30
0.0
 10
197.5389542305491
 20
-116.4428714940424
 30
0.0
  0
POLYLINE
  5
78
330
1F
100
AcDbEntity
  8
LAYER_1
 62
     3
100
AcDb2dPolyline
 66
     1
 10
0.0
 20
0.0
 30
0.0
  0
VERTEX
  5
79
330
78
100
AcDbEntity
  8
LAYER_1
 62
     3
100
AcDbVertex
100
AcDb2dVertex
 10
137.0038045234606
 20
-89.86328000375431
 30
0.0
  0
VERTEX
  5
7A
330
78
100
AcDbEntity
  8
LAYER_1
 62
     3
100
AcDbVertex
100
AcDb2dVertex
 10
137.0038045234606
 20
-119.9127936277395
 30
0.0
  0
VERTEX
  5
7B
330
78
100
AcDbEntity
  8
LAYER_1
 62
     3
100
AcDbVertex
100
AcDb2dVertex
 10
201.9636695072237
 20
-119.9127936277395
 30
0.0
  0
VERTEX
  5
7C
330
78
100
AcDbEntity
  8
LAYER_1
 62
     3
100
AcDbVertex
100
AcDb2dVertex
 10
201.9636695072237
 20
-89.86328000375431
 30
0.0
  0
VERTEX
  5
7D
330
78
100
AcDbEntity
  8
LAYER_1
 62
     3
100
AcDbVertex
100
AcDb2dVertex
 10
137.0038045234606
 20
-89.86328000375431
 30
0.0
  0
SEQEND
  5
7E
330
78
100
AcDbEntity
  8
LAYER_1
 62
     3
  0
SPLINE
  5
7F
330
1F
100
AcDbEntity
  8
LAYER_1
 62
     3
100
AcDbSpline
210
0.0
220
0.0
230
1.0
 70
    11
 71
     3
 72
    41
 73
    37
 74
     0
 42
0.0000000001
 43
0.0000000001
 12
1.0
 22
0.0
 32
0.0
 13
1.0
 23
0.0
 33
0.0
 40
0.0
 40
0.0
 40
0.0
 40
0.0
 40
1.0
 40
1.0
 40
1.0
 40
2.0
 40
2.0
 40
2.0
 40
3.0
 40
3.0
 40
3.0
 40
4.0
 40
4.0
 40
4.0
 40
5.0
 40
5.0
 40
5.0
 40
6.0
 40
6.0
 40
6.0
 40
7.0
 40
7.0
 40
7.0
 40
8.0
 40
8.0
 40
8.0
 40
9.0
 40
9.0
 40
9.0
 40
10.0
 40
10.0
 40
10.0
 40
11.0
 40
11.0
 40
11.0
 40
12.0
 40
12.0
 40
12.0
 40
12.0
 10
138.3537784185225
 20
-106.9182001138963
 30
0.0
 10
138.2225202805344
 20
-106.9182001138963
 30
0.0
 10
138.1167558491373
 20
-106.9223342284786
 30
0.0
 10
138.0196041564532
 20
-106.9264683430609
 30
0.0
 10
138.0196041564532
 20
-106.9264683430609
 30
0.0
 10
138.0196041564532
 20
-106.7593812120263
 30
0.0
 10
138.0196041564532
 20
-106.7593812120263
 30
0.0
 10
138.0196041564532
 20
-106.7593812120263
 30
0.0
 10
138.1949595166524
 20
-106.7511129828617
 30
0.0
 10
138.1949595166524
 20
-106.7511129828617
 30
0.0
 10
138.1949595166524
 20
-106.7511129828617
 30
0.0
 10
138.1949595166524
 20
-106.7466343587309
 30
0.0
 10
138.1949595166524
 20
-106.7466343587309
 30
0.0
 10
138.0702470600864
 20
-106.6704977485068
 30
0.0
 10
137.9961775071535
 20
-106.5499194065231
 30
0.0
 10
137.9961775071535
 20
-106.3828322754885
 30
0.0
 10
137.9961775071535
 20
-106.1354744196476
 30
0.0
 10
138.2056393126567
 20
-105.9490947538955
 30
0.0
 10
138.5167314349748
 20
-105.9490947538955
 30
0.0
 10
138.8846676327994
 20
-105.9490947538955
 30
0.0
 10
139.0665686744206
 20
-106.1733704699853
 30
0.0
 10
139.0665686744206
 20
-106.4145271539528
 30
0.0
 10
139.0665686744206
 20
-106.5499194065231
 30
0.0
 10
139.0073130320743
 20
-106.6684306912157
 30
0.0
 10
138.906027224808
 20
-106.7297533908531
 30
0.0
 10
138.906027224808
 20
-106.7297533908531
 30
0.0
 10
138.906027224808
 20
-106.734232014984
 30
0.0
 10
138.906027224808
 20
-106.734232014984
 30
0.0
 10
138.906027224808
 20
-106.734232014984
 30
0.0
 10
139.4624101456758
 20
-106.734232014984
 30
0.0
 10
139.4624101456758
 20
-106.734232014984
 30
0.0
 10
139.4624101456758
 20
-106.734232014984
 30
0.0
 10
139.4624101456758
 20
-106.9182001138963
 30
0.0
 10
139.4624101456758
 20
-106.9182001138963
 30
0.0
 10
139.4624101456758
 20
-106.9182001138963
 30
0.0
 10
138.3537784185225
 20
-106.9182001138963
 30
0.0
 10
138.3537784185225
 20
-106.9182001138963
 30
0.0
  0
SPLINE
  5
80
330
1F
100
AcDbEntity
  8
LAYER_1
 62
     3
100
AcDbSpline
210
0.0
220
0.0
230
1.0
 70
    11
 71
     3
 72
    26
 73
    22
 74
     0
 42
0.0000000001
 43
0.0000000001
 12
1.0
 22
0.0
 32
0.0
 13
1.0
 23
0.0
 33
0.0
 40
0.0
 40
0.0
 40
0.0
 40
0.0
 40
1.0
 40
1.0
 40
1.0
 40
2.0
 40
2.0
 40
2.0
 40
3.0
 40
3.0
 40
3.0
 40
4.0
 40
4.0
 40
4.0
 40
5.0
 40
5.0
 40
5.0
 40
6.0
 40
6.0
 40
6.0
 40
7.0
 40
7.0
 40
7.0
 40
7.0
 10
138.6266299809542
 20
-106.734232014984
 30
0.0
 10
138.6541907448362
 20
-106.734232014984
 30
0.0
 10
138.6796844514271
 20
-106.7297533908531
 30
0.0
 10
138.7027665911783
 20
-106.7256192762708
 30
0.0
 10
138.8319576718751
 20
-106.6918573405154
 30
0.0
 10
138.9208411353946
 20
-106.5795472276963
 30
0.0
 10
138.9208411353946
 20
-106.4462220324171
 30
0.0
 10
138.9208411353946
 20
-106.2495070802093
 30
0.0
 10
138.7599551762334
 20
-106.1354744196476
 30
0.0
 10
138.5249996641394
 20
-106.1354744196476
 30
0.0
 10
138.320016482767
 20
-106.1354744196476
 30
0.0
 10
138.1443166130193
 20
-106.2433059083359
 30
0.0
 10
138.1443166130193
 20
-106.4400208605436
 30
0.0
 10
138.1443166130193
 20
-106.5668003744008
 30
0.0
 10
138.2352671338299
 20
-106.6853116590934
 30
0.0
 10
138.3747935009825
 20
-106.7214851616885
 30
0.0
 10
138.3982201502822
 20
-106.727686333562
 30
0.0
 10
138.4257809141642
 20
-106.734232014984
 30
0.0
 10
138.4509301112065
 20
-106.734232014984
 30
0.0
 10
138.4509301112065
 20
-106.734232014984
 30
0.0
 10
138.6266299809542
 20
-106.734232014984
 30
0.0
 10
138.6266299809542
 20
-106.734232014984
 30
0.0
  0
SPLINE
  5
81
330
1F
100
AcDbEntity
  8
LAYER_1
 62
     3
100
AcDbSpline
210
0.0
220
0.0
230
1.0
 70
    11
 71
     3
 72
    17
 73
    13
 74
     0
 42
0.0000000001
 43
0.0000000001
 12
1.0
 22
0.0
 32
0.0
 13
1.0
 23
0.0
 33
0.0
 40
0.0
 40
0.0
 40
0.0
 40
0.0
 40
1.0
 40
1.0
 40
1.0
 40
2.0
 40
2.0
 40
2.0
 40
3.0
 40
3.0
 40
3.0
 40
4.0
 40
4.0
 40
4.0
 40
4.0
 10
137.7319386834349
 20
-105.5063999840409
 30
0.0
 10
137.7953284403634
 20
-105.5043329267498
 30
0.0
 10
137.8459713439966
 20
-105.5508417158007
 30
0.0
 10
137.8459713439966
 20
-105.6249112687335
 30
0.0
 10
137.8459713439966
 20
-105.6903680829533
 30
0.0
 10
137.7953284403634
 20
-105.7368768720041
 30
0.0
 10
137.7319386834349
 20
-105.7368768720041
 30
0.0
 10
137.6661373596666
 20
-105.7368768720041
 30
0.0
 10
137.6154944560334
 20
-105.6883010256621
 30
0.0
 10
137.6154944560334
 20
-105.6207771541512
 30
0.0
 10
137.6154944560334
 20
-105.5508417158007
 30
0.0
 10
137.6661373596666
 20
-105.5063999840409
 30
0.0
 10
137.7319386834349
 20
-105.5063999840409
 30
0.0
  0
POLYLINE
  5
82
330
1F
100
AcDbEntity
  8
LAYER_1
 62
     3
100
AcDb2dPolyline
 66
     1
 10
0.0
 20
0.0
 30
0.0
  0
VERTEX
  5
83
330
82
100
AcDbEntity
  8
LAYER_1
 62
     3
100
AcDbVertex
100
AcDb2dVertex
 10
139.0434865346695
 20
-105.713794732253
 30
0.0
  0
VERTEX
  5
84
330
82
100
AcDbEntity
  8
LAYER_1
 62
     3
100
AcDbVertex
100
AcDb2dVertex
 10
138.0196041564532
 20
-105.713794732253
 30
0.0
  0
VERTEX
  5
85
330
82
100
AcDbEntity
  8
LAYER_1
 62
     3
100
AcDbVertex
100
AcDb2dVertex
 10
138.0196041564532
 20
-105.527415066501
 30
0.0
  0
VERTEX
  5
86
330
82
100
AcDbEntity
  8
LAYER_1
 62
     3
100
AcDbVertex
100
AcDb2dVertex
 10
139.0434865346695
 20
-105.527415066501
 30
0.0
  0
VERTEX
  5
87
330
82
100
AcDbEntity
  8
LAYER_1
 62
     3
100
AcDbVertex
100
AcDb2dVertex
 10
139.0434865346695
 20
-105.713794732253
 30
0.0
  0
SEQEND
  5
88
330
82
100
AcDbEntity
  8
LAYER_1
 62
     3
  0
POLYLINE
  5
89
330
1F
100
AcDbEntity
  8
LAYER_1
 62
     3
100
AcDb2dPolyline
 66
     1
 10
0.0
 20
0.0
 30
0.0
  0
VERTEX
  5
8A
330
89
100
AcDbEntity
  8
LAYER_1
 62
     3
100
AcDbVertex
100
AcDb2dVertex
 10
138.4023542648645
 20
-104.7867195371732
 30
0.0
  0
VERTEX
  5
8B
330
89
100
AcDbEntity
  8
LAYER_1
 62
     3
100
AcDbVertex
100
AcDb2dVertex
 10
138.5398135747259
 20
-104.7867195371732
 30
0.0
  0
VERTEX
  5
8C
330
89
100
AcDbEntity
  8
LAYER_1
 62
     3
100
AcDbVertex
100
AcDb2dVertex
 10
138.5398135747259
 20
-105.309340522285
 30
0.0
  0
VERTEX
  5
8D
330
89
100
AcDbEntity
  8
LAYER_1
 62
     3
100
AcDbVertex
100
AcDb2dVertex
 10
138.4023542648645
 20
-105.309340522285
 30
0.0
  0
VERTEX
  5
8E
330
89
100
AcDbEntity
  8
LAYER_1
 62
     3
100
AcDbVertex
100
AcDb2dVertex
 10
138.4023542648645
 20
-104.7867195371732
 30
0.0
  0
SEQEND
  5
8F
330
89
100
AcDbEntity
  8
LAYER_1
 62
     3
  0
SPLINE
  5
90
330
1F
100
AcDbEntity
  8
LAYER_1
 62
     3
100
AcDbSpline
210
0.0
220
0.0
230
1.0
 70
    11
 71
     3
 72
    47
 73
    43
 74
     0
 42
0.0000000001
 43
0.0000000001
 12
1.0
 22
0.0
 32
0.0
 13
1.0
 23
0.0
 33
0.0
 40
0.0
 40
0.0
 40
0.0
 40
0.0
 40
1.0
 40
1.0
 40
1.0
 40
2.0
 40
2.0
 40
2.0
 40
3.0
 40
3.0
 40
3.0
 40
4.0
 40
4.0
 40
4.0
 40
5.0
 40
5.0
 40
5.0
 40
6.0
 40
6.0
 40
6.0
 40
7.0
 40
7.0
 40
7.0
 40
8.0
 40
8.0
 40
8.0
 40
9.0
 40
9.0
 40
9.0
 40
10.0
 40
10.0
 40
10.0
 40
11.0
 40
11.0
 40
11.0
 40
12.0
 40
12.0
 40
12.0
 40
13.0
 40
13.0
 40
13.0
 40
14.0
 40
14.0
 40
14.0
 40
14.0
 10
138.9356550459812
 20
-104.6847447108098
 30
0.0
 10
138.9356550459812
 20
-104.6847447108098
 30
0.0
 10
138.3324188265139
 20
-104.2217238775922
 30
0.0
 10
138.3324188265139
 20
-104.2217238775922
 30
0.0
 10
138.2776418082984
 20
-104.1772821458325
 30
0.0
 10
138.2290659619564
 20
-104.1349074713639
 30
0.0
 10
138.1739444341924
 20
-104.0883986823131
 30
0.0
 10
138.1739444341924
 20
-104.0883986823131
 30
0.0
 10
138.1698103196101
 20
-104.0883986823131
 30
0.0
 10
138.1698103196101
 20
-104.0883986823131
 30
0.0
 10
138.1698103196101
 20
-104.0883986823131
 30
0.0
 10
138.1698103196101
 20
-104.6427145458898
 30
0.0
 10
138.1698103196101
 20
-104.6427145458898
 30
0.0
 10
138.1698103196101
 20
-104.6427145458898
 30
0.0
 10
138.0196041564532
 20
-104.6427145458898
 30
0.0
 10
138.0196041564532
 20
-104.6427145458898
 30
0.0
 10
138.0196041564532
 20
-104.6427145458898
 30
0.0
 10
138.0196041564532
 20
-103.8620559089321
 30
0.0
 10
138.0196041564532
 20
-103.8620559089321
 30
0.0
 10
138.0196041564532
 20
-103.8620559089321
 30
0.0
 10
138.1357038743061
 20
-103.8641229662233
 30
0.0
 10
138.1357038743061
 20
-103.8641229662233
 30
0.0
 10
138.1357038743061
 20
-103.8641229662233
 30
0.0
 10
138.7303273550603
 20
-104.3209426275674
 30
0.0
 10
138.7303273550603
 20
-104.3209426275674
 30
0.0
 10
138.7875159401154
 20
-104.363317302036
 30
0.0
 10
138.8381588437486
 20
-104.4056919765046
 30
0.0
 10
138.8912133142214
 20
-104.4522007655554
 30
0.0
 10
138.8912133142214
 20
-104.4522007655554
 30
0.0
 10
138.8953474288037
 20
-104.4522007655554
 30
0.0
 10
138.8953474288037
 20
-104.4522007655554
 30
0.0
 10
138.8953474288037
 20
-104.4522007655554
 30
0.0
 10
138.8953474288037
 20
-103.853443170219
 30
0.0
 10
138.8953474288037
 20
-103.853443170219
 30
0.0
 10
138.8953474288037
 20
-103.853443170219
 30
0.0
 10
139.0434865346695
 20
-103.853443170219
 30
0.0
 10
139.0434865346695
 20
-103.853443170219
 30
0.0
 10
139.0434865346695
 20
-103.853443170219
 30
0.0
 10
139.0434865346695
 20
-104.6847447108098
 30
0.0
 10
139.0434865346695
 20
-104.6847447108098
 30
0.0
 10
139.0434865346695
 20
-104.6847447108098
 30
0.0
 10
138.9356550459812
 20
-104.6847447108098
 30
0.0
 10
138.9356550459812
 20
-104.6847447108098
 30
0.0
  0
SPLINE
  5
91
330
1F
100
AcDbEntity
  8
LAYER_1
 62
     3
100
AcDbSpline
210
0.0
220
0.0
230
1.0
 70
    11
 71
     3
 72
    32
 73
    28
 74
     0
 42
0.0000000001
 43
0.0000000001
 12
1.0
 22
0.0
 32
0.0
 13
1.0
 23
0.0
 33
0.0
 40
0.0
 40
0.0
 40
0.0
 40
0.0
 40
1.0
 40
1.0
 40
1.0
 40
2.0
 40
2.0
 40
2.0
 40
3.0
 40
3.0
 40
3.0
 40
4.0
 40
4.0
 40
4.0
 40
5.0
 40
5.0
 40
5.0
 40
6.0
 40
6.0
 40
6.0
 40
7.0
 40
7.0
 40
7.0
 40
8.0
 40
8.0
 40
8.0
 40
9.0
 40
9.0
 40
9.0
 40
9.0
 10
138.5653072813168
 20
-103.5737014168167
 30
0.0
 10
138.8171437612885
 20
-103.5695673022344
 30
0.0
 10
138.9208411353946
 20
-103.4086813430733
 30
0.0
 10
138.9208411353946
 20
-103.2223016773213
 30
0.0
 10
138.9208411353946
 20
-103.0893209915906
 30
0.0
 10
138.8974144860949
 20
-103.0087057572358
 30
0.0
 10
138.8677866649217
 20
-102.9391148284337
 30
0.0
 10
138.8677866649217
 20
-102.9391148284337
 30
0.0
 10
139.0011118602009
 20
-102.9074199499694
 30
0.0
 10
139.0011118602009
 20
-102.9074199499694
 30
0.0
 10
139.0307396813741
 20
-102.9728767641892
 30
0.0
 10
139.0645016171295
 20
-103.0848423674598
 30
0.0
 10
139.0645016171295
 20
-103.2477953839121
 30
0.0
 10
139.0645016171295
 20
-103.5630216208125
 30
0.0
 10
138.8571068689175
 20
-103.7514683438556
 30
0.0
 10
138.5484263134391
 20
-103.7514683438556
 30
0.0
 10
138.2394012484122
 20
-103.7514683438556
 30
0.0
 10
137.9961775071535
 20
-103.5695673022344
 30
0.0
 10
137.9961775071535
 20
-103.2712220332118
 30
0.0
 10
137.9961775071535
 20
-102.9370477711426
 30
0.0
 10
138.2903886615939
 20
-102.8481643076231
 30
0.0
 10
138.4784908750885
 20
-102.8481643076231
 30
0.0
 10
138.5167314349748
 20
-102.8481643076231
 30
0.0
 10
138.5463592561479
 20
-102.8522984222054
 30
0.0
 10
138.5653072813168
 20
-102.8543654794966
 30
0.0
 10
138.5653072813168
 20
-102.8543654794966
 30
0.0
 10
138.5653072813168
 20
-103.5737014168167
 30
0.0
 10
138.5653072813168
 20
-103.5737014168167
 30
0.0
  0
SPLINE
  5
92
330
1F
100
AcDbEntity
  8
LAYER_1
 62
     3
100
AcDbSpline
210
0.0
220
0.0
230
1.0
 70
    11
 71
     3
 72
    14
 73
    10
 74
     0
 42
0.0000000001
 43
0.0000000001
 12
1.0
 22
0.0
 32
0.0
 13
1.0
 23
0.0
 33
0.0
 40
0.0
 40
0.0
 40
0.0
 40
0.0
 40
1.0
 40
1.0
 40
1.0
 40
2.0
 40
2.0
 40
2.0
 40
3.0
 40
3.0
 40
3.0
 40
3.0
 10
138.4319820860376
 20
-103.0279982919532
 30
0.0
 10
138.313470801345
 20
-103.0255867251135
 30
0.0
 10
138.1295027024327
 20
-103.0765741382952
 30
0.0
 10
138.1295027024327
 20
-103.2860359437984
 30
0.0
 10
138.1295027024327
 20
-103.474138157293
 30
0.0
 10
138.3031355148893
 20
-103.556820448939
 30
0.0
 10
138.4319820860376
 20
-103.5716343595256
 30
0.0
 10
138.4319820860376
 20
-103.5716343595256
 30
0.0
 10
138.4319820860376
 20
-103.0279982919532
 30
0.0
 10
138.4319820860376
 20
-103.0279982919532
 30
0.0
  0
SPLINE
  5
93
330
1F
100
AcDbEntity
  8
LAYER_1
 62
     3
100
AcDbSpline
210
0.0
220
0.0
230
1.0
 70
    11
 71
     3
 72
    44
 73
    40
 74
     0
 42
0.0000000001
 43
0.0000000001
 12
1.0
 22
0.0
 32
0.0
 13
1.0
 23
0.0
 33
0.0
 40
0.0
 40
0.0
 40
0.0
 40
0.0
 40
1.0
 40
1.0
 40
1.0
 40
2.0
 40
2.0
 40
2.0
 40
3.0
 40
3.0
 40
3.0
 40
4.0
 40
4.0
 40
4.0
 40
5.0
 40
5.0
 40
5.0
 40
6.0
 40
6.0
 40
6.0
 40
7.0
 40
7.0
 40
7.0
 40
8.0
 40
8.0
 40
8.0
 40
9.0
 40
9.0
 40
9.0
 40
10.0
 40
10.0
 40
10.0
 40
11.0
 40
11.0
 40
11.0
 40
12.0
 40
12.0
 40
12.0
 40
13.0
 40
13.0
 40
13.0
 40
13.0
 10
138.3389645079359
 20
-102.6169984005628
 30
0.0
 10
138.2183861659521
 20
-102.6169984005628
 30
0.0
 10
138.1146887918461
 20
-102.619065457854
 30
0.0
 10
138.0196041564532
 20
-102.6252666297274
 30
0.0
 10
138.0196041564532
 20
-102.6252666297274
 30
0.0
 10
138.0196041564532
 20
-102.4623136132751
 30
0.0
 10
138.0196041564532
 20
-102.4623136132751
 30
0.0
 10
138.0196041564532
 20
-102.4623136132751
 30
0.0
 10
138.2204532232433
 20
-102.4561124414017
 30
0.0
 10
138.2204532232433
 20
-102.4561124414017
 30
0.0
 10
138.2204532232433
 20
-102.4561124414017
 30
0.0
 10
138.2204532232433
 20
-102.4474997026886
 30
0.0
 10
138.2204532232433
 20
-102.4474997026886
 30
0.0
 10
138.0829939133818
 20
-102.4009909136377
 30
0.0
 10
137.9961775071535
 20
-102.2890253103671
 30
0.0
 10
137.9961775071535
 20
-102.164312853801
 30
0.0
 10
137.9961775071535
 20
-102.1429532617925
 30
0.0
 10
137.9982445644447
 20
-102.1281393512059
 30
0.0
 10
138.0027231885755
 20
-102.1112583833282
 30
0.0
 10
138.0027231885755
 20
-102.1112583833282
 30
0.0
 10
138.1780785487747
 20
-102.1112583833282
 30
0.0
 10
138.1780785487747
 20
-102.1112583833282
 30
0.0
 10
138.1739444341924
 20
-102.130206408497
 30
0.0
 10
138.1718773769013
 20
-102.1494989432145
 30
0.0
 10
138.1718773769013
 20
-102.1746481402568
 30
0.0
 10
138.1718773769013
 20
-102.3059062782448
 30
0.0
 10
138.2710961268765
 20
-102.3989238563465
 30
0.0
 10
138.4109670035776
 20
-102.4244175629374
 30
0.0
 10
138.4361162006199
 20
-102.4285516775197
 30
0.0
 10
138.4657440217931
 20
-102.432685792102
 30
0.0
 10
138.4974389002574
 20
-102.432685792102
 30
0.0
 10
138.4974389002574
 20
-102.432685792102
 30
0.0
 10
139.0434865346695
 20
-102.432685792102
 30
0.0
 10
139.0434865346695
 20
-102.432685792102
 30
0.0
 10
139.0434865346695
 20
-102.432685792102
 30
0.0
 10
139.0434865346695
 20
-102.6169984005628
 30
0.0
 10
139.0434865346695
 20
-102.6169984005628
 30
0.0
 10
139.0434865346695
 20
-102.6169984005628
 30
0.0
 10
138.3389645079359
 20
-102.6169984005628
 30
0.0
 10
138.3389645079359
 20
-102.6169984005628
 30
0.0
  0
SPLINE
  5
94
330
1F
100
AcDbEntity
  8
LAYER_1
 62
     3
100
AcDbSpline
210
0.0
220
0.0
230
1.0
 70
    11
 71
     3
 72
    17
 73
    13
 74
     0
 42
0.0000000001
 43
0.0000000001
 12
1.0
 22
0.0
 32
0.0
 13
1.0
 23
0.0
 33
0.0
 40
0.0
 40
0.0
 40
0.0
 40
0.0
 40
1.0
 40
1.0
 40
1.0
 40
2.0
 40
2.0
 40
2.0
 40
3.0
 40
3.0
 40
3.0
 40
4.0
 40
4.0
 40
4.0
 40
4.0
 10
138.5229326068482
 20
-101.019163114504
 30
0.0
 10
138.9015486006772
 20
-101.019163114504
 30
0.0
 10
139.0665686744206
 20
-101.28167939048
 30
0.0
 10
139.0665686744206
 20
-101.529037246321
 30
0.0
 10
139.0665686744206
 20
-101.806022923335
 30
0.0
 10
138.8636525503394
 20
-102.0199633529691
 30
0.0
 10
138.5398135747259
 20
-102.0199633529691
 30
0.0
 10
138.1970265739436
 20
-102.0199633529691
 30
0.0
 10
137.9961775071535
 20
-101.7956876368793
 30
0.0
 10
137.9961775071535
 20
-101.5121562784432
 30
0.0
 10
137.9961775071535
 20
-101.2179451240029
 30
0.0
 10
138.209773427239
 20
-101.019163114504
 30
0.0
 10
138.5229326068482
 20
-101.019163114504
 30
0.0
  0
SPLINE
  5
95
330
1F
100
AcDbEntity
  8
LAYER_1
 62
     3
100
AcDbSpline
210
0.0
220
0.0
230
1.0
 70
    11
 71
     3
 72
    17
 73
    13
 74
     0
 42
0.0000000001
 43
0.0000000001
 12
1.0
 22
0.0
 32
0.0
 13
1.0
 23
0.0
 33
0.0
 40
0.0
 40
0.0
 40
0.0
 40
0.0
 40
1.0
 40
1.0
 40
1.0
 40
2.0
 40
2.0
 40
2.0
 40
3.0
 40
3.0
 40
3.0
 40
4.0
 40
4.0
 40
4.0
 40
4.0
 10
138.5336124028525
 20
-101.8315166299259
 30
0.0
 10
138.7578881189422
 20
-101.8315166299259
 30
0.0
 10
138.927042307268
 20
-101.7026700587775
 30
0.0
 10
138.927042307268
 20
-101.5204245076078
 30
0.0
 10
138.927042307268
 20
-101.3430020901175
 30
0.0
 10
138.7599551762334
 20
-101.2096768948383
 30
0.0
 10
138.5294782882702
 20
-101.2096768948383
 30
0.0
 10
138.3558454758136
 20
-101.2096768948383
 30
0.0
 10
138.1357038743061
 20
-101.2964933010666
 30
0.0
 10
138.1357038743061
 20
-101.5162903930255
 30
0.0
 10
138.1357038743061
 20
-101.736431994533
 30
0.0
 10
138.3389645079359
 20
-101.8315166299259
 30
0.0
 10
138.5336124028525
 20
-101.8315166299259
 30
0.0
  0
SPLINE
  5
96
330
1F
100
AcDbEntity
  8
LAYER_1
 62
     7
100
AcDbSpline
210
0.0
220
0.0
230
1.0
 70
    11
 71
     3
 72
    50
 73
    46
 74
     0
 42
0.0000000001
 43
0.0000000001
 12
1.0
 22
0.0
 32
0.0
 13
1.0
 23
0.0
 33
0.0
 40
0.0
 40
0.0
 40
0.0
 40
0.0
 40
1.0
 40
1.0
 40
1.0
 40
2.0
 40
2.0
 40
2.0
 40
3.0
 40
3.0
 40
3.0
 40
4.0
 40
4.0
 40
4.0
 40
5.0
 40
5.0
 40
5.0
 40
6.0
 40
6.0
 40
6.0
 40
7.0
 40
7.0
 40
7.0
 40
8.0
 40
8.0
 40
8.0
 40
9.0
 40
9.0
 40
9.0
 40
10.0
 40
10.0
 40
10.0
 40
11.0
 40
11.0
 40
11.0
 40
12.0
 40
12.0
 40
12.0
 40
13.0
 40
13.0
 40
13.0
 40
14.0
 40
14.0
 40
14.0
 40
15.0
 40
15.0
 40
15.0
 40
15.0
 10
260.9394464413852
 20
-97.33045543481013
 30
0.0
 10
260.9394464413852
 20
-97.33045543481013
 30
0.0
 10
260.6921245537361
 20
-98.26957554464761
 30
0.0
 10
260.6921245537361
 20
-98.26957554464761
 30
0.0
 10
260.6921245537361
 20
-98.26957554464761
 30
0.0
 10
249.4724457220585
 20
-140.4748238404198
 30
0.0
 10
249.4724457220585
 20
-140.4748238404198
 30
0.0
 10
249.0489885497061
 20
-142.0694905401664
 30
0.0
 10
247.396145466079
 20
-143.0272711950445
 30
0.0
 10
245.8011328625625
 20
-142.6003214188395
 30
0.0
 10
245.8011328625625
 20
-142.6003214188395
 30
0.0
 10
234.2050806433161
 20
-139.5195338769248
 30
0.0
 10
234.2050806433161
 20
-139.5195338769248
 30
0.0
 10
232.6104160656791
 20
-139.0960981315906
 30
0.0
 10
231.6494672837007
 20
-137.4470956776964
 30
0.0
 10
232.0764170599064
 20
-135.8520830741792
 30
0.0
 10
232.0764170599064
 20
-135.8520830741792
 30
0.0
 10
239.1602603199808
 20
-109.1937559963469
 30
0.0
 10
239.1602603199808
 20
-109.1937559963469
 30
0.0
 10
239.1602603199808
 20
-109.1937559963469
 30
0.0
 10
245.664521807591
 20
-106.1425084990953
 30
0.0
 10
245.664521807591
 20
-106.1425084990953
 30
0.0
 10
245.664521807591
 20
-106.1425084990953
 30
0.0
 10
240.65326071291
 20
-95.45420931773567
 30
0.0
 10
240.65326071291
 20
-95.45420931773567
 30
0.0
 10
240.65326071291
 20
-95.45420931773567
 30
0.0
 10
240.6497466820379
 20
-95.45455734361559
 30
0.0
 10
240.6497466820379
 20
-95.45455734361559
 30
0.0
 10
240.6497466820379
 20
-95.45455734361559
 30
0.0
 10
231.6462716003849
 20
-76.24236077083272
 30
0.0
 10
231.6462716003849
 20
-76.24236077083272
 30
0.0
 10
230.9456356202106
 20
-74.75192606352913
 30
0.0
 10
231.5939409083053
 20
-72.95773879383061
 30
0.0
 10
233.0878896464798
 20
-72.25675478777673
 30
0.0
 10
233.0878896464798
 20
-72.25675478777673
 30
0.0
 10
243.955612068435
 20
-67.16036723702724
 30
0.0
 10
243.955612068435
 20
-67.16036723702724
 30
0.0
 10
245.4499067103813
 20
-66.46287583482635
 30
0.0
 10
247.2440939800792
 20
-67.11118112292046
 30
0.0
 10
247.9415639552628
 20
-68.60547788697545
 30
0.0
 10
247.9415639552628
 20
-68.60547788697545
 30
0.0
 10
260.6748558168865
 20
-95.7684905416996
 30
0.0
 10
260.6748558168865
 20
-95.7684905416996
 30
0.0
 10
260.9127115354527
 20
-96.27314062034569
 30
0.0
 10
260.9943452882642
 20
-96.81098361407768
 30
0.0
 10
260.9394464413852
 20
-97.33045543481013
 30
0.0
  0
SPLINE
  5
97
330
1F
100
AcDbEntity
  8
LAYER_1
 62
     1
100
AcDbSpline
210
0.0
220
0.0
230
1.0
 70
    11
 71
     3
 72
    17
 73
    13
 74
     0
 42
0.0000000001
 43
0.0000000001
 12
1.0
 22
0.0
 32
0.0
 13
1.0
 23
0.0
 33
0.0
 40
0.0
 40
0.0
 40
0.0
 40
0.0
 40
1.0
 40
1.0
 40
1.0
 40
2.0
 40
2.0
 40
2.0
 40
3.0
 40
3.0
 40
3.0
 40
4.0
 40
4.0
 40
4.0
 40
4.0
 10
245.0569557070061
 20
-76.58411121855434
 30
0.0
 10
245.7601743647566
 20
-78.08432771018828
 30
0.0
 10
245.1140799637539
 20
-79.87056482711736
 30
0.0
 10
243.61386347212
 20
-80.57378348487107
 30
0.0
 10
242.1136469804892
 20
-81.27700214262126
 30
0.0
 10
240.3274098635586
 20
-80.63090774162112
 30
0.0
 10
239.6241912058055
 20
-79.1306912499875
 30
0.0
 10
238.9209725480518
 20
-77.6304747583526
 30
0.0
 10
239.5670669490564
 20
-75.84423764142062
 30
0.0
 10
241.0672834406878
 20
-75.14101898366852
 30
0.0
 10
242.5674999323204
 20
-74.43780032591641
 30
0.0
 10
244.3537370492518
 20
-75.08389472691944
 30
0.0
 10
245.0569557070061
 20
-76.58411121855434
 30
0.0
  0
SPLINE
  5
98
330
1F
100
AcDbEntity
  8
LAYER_1
 62
     1
100
AcDbSpline
210
0.0
220
0.0
230
1.0
 70
    11
 71
     3
 72
    17
 73
    13
 74
     0
 42
0.0000000001
 43
0.0000000001
 12
1.0
 22
0.0
 32
0.0
 13
1.0
 23
0.0
 33
0.0
 40
0.0
 40
0.0
 40
0.0
 40
0.0
 40
1.0
 40
1.0
 40
1.0
 40
2.0
 40
2.0
 40
2.0
 40
3.0
 40
3.0
 40
3.0
 40
4.0
 40
4.0
 40
4.0
 40
4.0
 10
237.0352621885874
 20
-75.37419492187996
 30
0.0
 10
237.2110668530245
 20
-75.74924904478699
 30
0.0
 10
237.0495432527747
 20
-76.19580832401743
 30
0.0
 10
236.6744891298628
 20
-76.37161298845842
 30
0.0
 10
236.2994350069561
 20
-76.54741765289556
 30
0.0
 10
235.8528757277247
 20
-76.3858940526457
 30
0.0
 10
235.6770710632863
 20
-76.01083992973865
 30
0.0
 10
235.5012663988479
 20
-75.63578580683
 30
0.0
 10
235.6627899990984
 20
-75.18922652759798
 30
0.0
 10
236.0378441220045
 20
-75.01342186316019
 30
0.0
 10
236.4128982449176
 20
-74.83761719872015
 30
0.0
 10
236.859457524149
 20
-74.99914079897164
 30
0.0
 10
237.0352621885874
 20
-75.37419492187996
 30
0.0
  0
SPLINE
  5
99
330
1F
100
AcDbEntity
  8
LAYER_1
 62
     1
100
AcDbSpline
210
0.0
220
0.0
230
1.0
 70
    11
 71
     3
 72
    17
 73
    13
 74
     0
 42
0.0000000001
 43
0.0000000001
 12
1.0
 22
0.0
 32
0.0
 13
1.0
 23
0.0
 33
0.0
 40
0.0
 40
0.0
 40
0.0
 40
0.0
 40
1.0
 40
1.0
 40
1.0
 40
2.0
 40
2.0
 40
2.0
 40
3.0
 40
3.0
 40
3.0
 40
4.0
 40
4.0
 40
4.0
 40
4.0
 10
240.8552843021853
 20
-83.52366608571283
 30
0.0
 10
241.0310889666243
 20
-83.89872020862244
 30
0.0
 10
240.8695653663725
 20
-84.34527948785127
 30
0.0
 10
240.49451124346
 20
-84.52108415229098
 30
0.0
 10
240.1194571205533
 20
-84.69688881672748
 30
0.0
 10
239.6728978413232
 20
-84.53536521648178
 30
0.0
 10
239.4970931768841
 20
-84.16031109357121
 30
0.0
 10
239.3212885124457
 20
-83.78525697066256
 30
0.0
 10
239.4828121126956
 20
-83.33869769143053
 30
0.0
 10
239.857866235603
 20
-83.16289302699242
 30
0.0
 10
240.2329203585148
 20
-82.98708836255271
 30
0.0
 10
240.6794796377475
 20
-83.1486119628029
 30
0.0
 10
240.8552843021853
 20
-83.52366608571283
 30
0.0
  0
SPLINE
  5
9A
330
1F
100
AcDbEntity
  8
LAYER_1
 62
     1
100
AcDbSpline
210
0.0
220
0.0
230
1.0
 70
    11
 71
     3
 72
    17
 73
    13
 74
     0
 42
0.0000000001
 43
0.0000000001
 12
1.0
 22
0.0
 32
0.0
 13
1.0
 23
0.0
 33
0.0
 40
0.0
 40
0.0
 40
0.0
 40
0.0
 40
1.0
 40
1.0
 40
1.0
 40
2.0
 40
2.0
 40
2.0
 40
3.0
 40
3.0
 40
3.0
 40
4.0
 40
4.0
 40
4.0
 40
4.0
 10
245.1840537359249
 20
-71.55449137497
 30
0.0
 10
245.3598584003634
 20
-71.92954549787575
 30
0.0
 10
245.1983348001128
 20
-72.37610477710875
 30
0.0
 10
244.8232806772003
 20
-72.55190944154846
 30
0.0
 10
244.4482265542943
 20
-72.7277141059856
 30
0.0
 10
244.0016672750616
 20
-72.5661905057351
 30
0.0
 10
243.8258626106251
 20
-72.19113638282772
 30
0.0
 10
243.6500579461854
 20
-71.81608225992005
 30
0.0
 10
243.8115815464365
 20
-71.36952298068833
 30
0.0
 10
244.1866356693432
 20
-71.19371831625023
 30
0.0
 10
244.5616897922551
 20
-71.01791365180988
 30
0.0
 10
245.0082490714871
 20
-71.17943725206007
 30
0.0
 10
245.1840537359249
 20
-71.55449137497
 30
0.0
  0
SPLINE
  5
9B
330
1F
100
AcDbEntity
  8
LAYER_1
 62
     1
100
AcDbSpline
210
0.0
220
0.0
230
1.0
 70
    11
 71
     3
 72
    17
 73
    13
 74
     0
 42
0.0000000001
 43
0.0000000001
 12
1.0
 22
0.0
 32
0.0
 13
1.0
 23
0.0
 33
0.0
 40
0.0
 40
0.0
 40
0.0
 40
0.0
 40
1.0
 40
1.0
 40
1.0
 40
2.0
 40
2.0
 40
2.0
 40
3.0
 40
3.0
 40
3.0
 40
4.0
 40
4.0
 40
4.0
 40
4.0
 10
249.0040758495241
 20
-79.70396253880384
 30
0.0
 10
249.1798805139638
 20
-80.07901666171152
 30
0.0
 10
249.0183569137107
 20
-80.52557594094162
 30
0.0
 10
248.6433027907982
 20
-80.70138060538133
 30
0.0
 10
248.2682486678915
 20
-80.87718526981912
 30
0.0
 10
247.8216893886607
 20
-80.71566166957118
 30
0.0
 10
247.6458847242242
 20
-80.34060754666156
 30
0.0
 10
247.4700800597845
 20
-79.96555342375228
 30
0.0
 10
247.631603660035
 20
-79.51899414452025
 30
0.0
 10
248.0066577829417
 20
-79.34318948008374
 30
0.0
 10
248.3817119058542
 20
-79.16738481564403
 30
0.0
 10
248.8282711850863
 20
-79.32890841589455
 30
0.0
 10
249.0040758495241
 20
-79.70396253880384
 30
0.0
  0
SPLINE
  5
9C
330
1F
100
AcDbEntity
  8
LAYER_1
 62
     1
100
AcDbSpline
210
0.0
220
0.0
230
1.0
 70
    11
 71
     3
 72
    17
 73
    13
 74
     0
 42
0.0000000001
 43
0.0000000001
 12
1.0
 22
0.0
 32
0.0
 13
1.0
 23
0.0
 33
0.0
 40
0.0
 40
0.0
 40
0.0
 40
0.0
 40
1.0
 40
1.0
 40
1.0
 40
2.0
 40
2.0
 40
2.0
 40
3.0
 40
3.0
 40
3.0
 40
4.0
 40
4.0
 40
4.0
 40
4.0
 10
252.6968478677549
 20
-92.88272913418784
 30
0.0
 10
253.400066525506
 20
-94.38294562582146
 30
0.0
 10
252.7539721245065
 20
-96.16918274274958
 30
0.0
 10
251.2537556328713
 20
-96.87240140050169
 30
0.0
 10
249.753539141238
 20
-97.57562005825508
 30
0.0
 10
247.967302024306
 20
-96.92952565725494
 30
0.0
 10
247.2640833665523
 20
-95.42930916562133
 30
0.0
 10
246.5608647087992
 20
-93.92909267398674
 30
0.0
 10
247.2069591098026
 20
-92.1428555570538
 30
0.0
 10
248.7071756014359
 20
-91.43963689930042
 30
0.0
 10
250.2073920930704
 20
-90.736418241548
 30
0.0
 10
251.9936292099999
 20
-91.38251264255263
 30
0.0
 10
252.6968478677549
 20
-92.88272913418784
 30
0.0
  0
SPLINE
  5
9D
330
1F
100
AcDbEntity
  8
LAYER_1
 62
     1
100
AcDbSpline
210
0.0
220
0.0
230
1.0
 70
    11
 71
     3
 72
    17
 73
    13
 74
     0
 42
0.0000000001
 43
0.0000000001
 12
1.0
 22
0.0
 32
0.0
 13
1.0
 23
0.0
 33
0.0
 40
0.0
 40
0.0
 40
0.0
 40
0.0
 40
1.0
 40
1.0
 40
1.0
 40
2.0
 40
2.0
 40
2.0
 40
3.0
 40
3.0
 40
3.0
 40
4.0
 40
4.0
 40
4.0
 40
4.0
 10
244.6751543493361
 20
-91.67281283751218
 30
0.0
 10
244.8509590137726
 20
-92.04786696041985
 30
0.0
 10
244.6894354135234
 20
-92.49442623965125
 30
0.0
 10
244.3143812906148
 20
-92.67023090408904
 30
0.0
 10
243.9393271677035
 20
-92.84603556852875
 30
0.0
 10
243.4927678884715
 20
-92.68451196827856
 30
0.0
 10
243.3169632240344
 20
-92.30945784537151
 30
0.0
 10
243.1411585595966
 20
-91.93440372246415
 30
0.0
 10
243.3026821598458
 20
-91.48784444323115
 30
0.0
 10
243.6777362827557
 20
-91.31203977879272
 30
0.0
 10
244.0527904056644
 20
-91.13623511435462
 30
0.0
 10
244.4993496848983
 20
-91.29775871460481
 30
0.0
 10
244.6751543493361
 20
-91.67281283751218
 30
0.0
  0
SPLINE
  5
9E
330
1F
100
AcDbEntity
  8
LAYER_1
 62
     1
100
AcDbSpline
210
0.0
220
0.0
230
1.0
 70
    11
 71
     3
 72
    17
 73
    13
 74
     0
 42
0.0000000001
 43
0.0000000001
 12
1.0
 22
0.0
 32
0.0
 13
1.0
 23
0.0
 33
0.0
 40
0.0
 40
0.0
 40
0.0
 40
0.0
 40
1.0
 40
1.0
 40
1.0
 40
2.0
 40
2.0
 40
2.0
 40
3.0
 40
3.0
 40
3.0
 40
4.0
 40
4.0
 40
4.0
 40
4.0
 10
248.495176462934
 20
-99.82228400134538
 30
0.0
 10
248.6709811273724
 20
-100.1973381242534
 30
0.0
 10
248.50945752712
 20
-100.6438974034806
 30
0.0
 10
248.1344034042126
 20
-100.819702067919
 30
0.0
 10
247.7593492813008
 20
-100.9955067323568
 30
0.0
 10
247.3127900020706
 20
-100.8339831321121
 30
0.0
 10
247.1369853376329
 20
-100.4589290092015
 30
0.0
 10
246.9611806731932
 20
-100.0838748862945
 30
0.0
 10
247.1227042734443
 20
-99.63731560706339
 30
0.0
 10
247.4977583963542
 20
-99.46151094262497
 30
0.0
 10
247.8728125192635
 20
-99.28570627818524
 30
0.0
 10
248.3193717984949
 20
-99.44722987843576
 30
0.0
 10
248.495176462934
 20
-99.82228400134538
 30
0.0
  0
SPLINE
  5
9F
330
1F
100
AcDbEntity
  8
LAYER_1
 62
     1
100
AcDbSpline
210
0.0
220
0.0
230
1.0
 70
    11
 71
     3
 72
    17
 73
    13
 74
     0
 42
0.0000000001
 43
0.0000000001
 12
1.0
 22
0.0
 32
0.0
 13
1.0
 23
0.0
 33
0.0
 40
0.0
 40
0.0
 40
0.0
 40
0.0
 40
1.0
 40
1.0
 40
1.0
 40
2.0
 40
2.0
 40
2.0
 40
3.0
 40
3.0
 40
3.0
 40
4.0
 40
4.0
 40
4.0
 40
4.0
 10
252.8239458966743
 20
-87.85310929060414
 30
0.0
 10
252.9997505611108
 20
-88.22816341350925
 30
0.0
 10
252.8382269608603
 20
-88.67472269274128
 30
0.0
 10
252.4631728379497
 20
-88.850527357181
 30
0.0
 10
252.0881187150443
 20
-89.02633202161685
 30
0.0
 10
251.6415594358103
 20
-88.86480842136795
 30
0.0
 10
251.4657547713732
 20
-88.48975429846155
 30
0.0
 10
251.2899501069348
 20
-88.11470017555355
 30
0.0
 10
251.4514737071885
 20
-87.66814089631991
 30
0.0
 10
251.8265278300939
 20
-87.49233623188309
 30
0.0
 10
252.2015819530045
 20
-87.31653156744338
 30
0.0
 10
252.6481412322346
 20
-87.4780551676939
 30
0.0
 10
252.8239458966743
 20
-87.85310929060414
 30
0.0
  0
SPLINE
  5
A0
330
1F
100
AcDbEntity
  8
LAYER_1
 62
     1
100
AcDbSpline
210
0.0
220
0.0
230
1.0
 70
    11
 71
     3
 72
    17
 73
    13
 74
     0
 42
0.0000000001
 43
0.0000000001
 12
1.0
 22
0.0
 32
0.0
 13
1.0
 23
0.0
 33
0.0
 40
0.0
 40
0.0
 40
0.0
 40
0.0
 40
1.0
 40
1.0
 40
1.0
 40
2.0
 40
2.0
 40
2.0
 40
3.0
 40
3.0
 40
3.0
 40
4.0
 40
4.0
 40
4.0
 40
4.0
 10
256.6439680102715
 20
-96.00258045443445
 30
0.0
 10
256.819772674708
 20
-96.37763457734341
 30
0.0
 10
256.6582490744588
 20
-96.82419385657384
 30
0.0
 10
256.2831949515482
 20
-96.99999852101259
 30
0.0
 10
255.9081408286421
 20
-97.1758031854491
 30
0.0
 10
255.4615815494075
 20
-97.01427958520146
 30
0.0
 10
255.2857768849691
 20
-96.63922546229475
 30
0.0
 10
255.1099722205326
 20
-96.2641713393861
 30
0.0
 10
255.271495820787
 20
-95.81761206015021
 30
0.0
 10
255.6465499436905
 20
-95.64180739571435
 30
0.0
 10
256.0216040666029
 20
-95.46600273127689
 30
0.0
 10
256.4681633458324
 20
-95.62752633152613
 30
0.0
 10
256.6439680102715
 20
-96.00258045443445
 30
0.0
  0
SPLINE
  5
A1
330
1F
100
AcDbEntity
  8
LAYER_1
 62
     1
100
AcDbSpline
210
0.0
220
0.0
230
1.0
 70
    11
 71
     3
 72
    17
 73
    13
 74
     0
 42
0.0000000001
 43
0.0000000001
 12
1.0
 22
0.0
 32
0.0
 13
1.0
 23
0.0
 33
0.0
 40
0.0
 40
0.0
 40
0.0
 40
0.0
 40
1.0
 40
1.0
 40
1.0
 40
2.0
 40
2.0
 40
2.0
 40
3.0
 40
3.0
 40
3.0
 40
4.0
 40
4.0
 40
4.0
 40
4.0
 10
248.4747596407743
 20
-111.6243457698555
 30
0.0
 10
248.3896348752426
 20
-111.9445963192521
 30
0.0
 10
248.0610132527629
 20
-112.13520342761
 30
0.0
 10
247.7407627033676
 20
-112.0500786620751
 30
0.0
 10
247.4205121539698
 20
-111.9649538965409
 30
0.0
 10
247.2299050456138
 20
-111.6363322740631
 30
0.0
 10
247.315029811148
 20
-111.3160817246703
 30
0.0
 10
247.4001545766822
 20
-110.9958311752718
 30
0.0
 10
247.7287761991607
 20
-110.8052240669152
 30
0.0
 10
248.0490267485573
 20
-110.8903488324501
 30
0.0
 10
248.3692772979506
 20
-110.975473597983
 30
0.0
 10
248.5598844063092
 20
-111.3040952204595
 30
0.0
 10
248.4747596407743
 20
-111.6243457698555
 30
0.0
  0
SPLINE
  5
A2
330
1F
100
AcDbEntity
  8
LAYER_1
 62
     1
100
AcDbSpline
210
0.0
220
0.0
230
1.0
 70
    11
 71
     3
 72
    17
 73
    13
 74
     0
 42
0.0000000001
 43
0.0000000001
 12
1.0
 22
0.0
 32
0.0
 13
1.0
 23
0.0
 33
0.0
 40
0.0
 40
0.0
 40
0.0
 40
0.0
 40
1.0
 40
1.0
 40
1.0
 40
2.0
 40
2.0
 40
2.0
 40
3.0
 40
3.0
 40
3.0
 40
4.0
 40
4.0
 40
4.0
 40
4.0
 10
241.2823600642016
 20
-138.6830977253534
 30
0.0
 10
241.1972352986654
 20
-139.0033482747526
 30
0.0
 10
240.8686136761934
 20
-139.1939553831086
 30
0.0
 10
240.5483631267949
 20
-139.1088306175724
 30
0.0
 10
240.2281125773996
 20
-139.0237058520414
 30
0.0
 10
240.0375054690417
 20
-138.6950842295616
 30
0.0
 10
240.1226302345779
 20
-138.374833680167
 30
0.0
 10
240.2077550001121
 20
-138.0545831307736
 30
0.0
 10
240.5363766225861
 20
-137.863976022417
 30
0.0
 10
240.8566271719852
 20
-137.9491007879487
 30
0.0
 10
241.1768777213805
 20
-138.0342255534816
 30
0.0
 10
241.3674848297384
 20
-138.3628471759601
 30
0.0
 10
241.2823600642016
 20
-138.6830977253534
 30
0.0
  0
POLYLINE
  5
A3
330
1F
100
AcDbEntity
  8
LAYER_1
 62
     1
100
AcDb2dPolyline
 66
     1
 10
0.0
 20
0.0
 30
0.0
  0
VERTEX
  5
A4
330
A3
100
AcDbEntity
  8
LAYER_1
 62
     1
100
AcDbVertex
100
AcDb2dVertex
 10
244.8383441301738
 20
-113.1977316654593
 30
0.0
  0
VERTEX
  5
A5
330
A3
100
AcDbEntity
  8
LAYER_1
 62
     1
100
AcDbVertex
100
AcDb2dVertex
 10
245.0948013136076
 20
-112.2320925252251
 30
0.0
  0
VERTEX
  5
A6
330
A3
100
AcDbEntity
  8
LAYER_1
 62
     1
100
AcDbVertex
100
AcDb2dVertex
 10
249.927802212847
 20
-113.5159546091081
 30
0.0
  0
VERTEX
  5
A7
330
A3
100
AcDbEntity
  8
LAYER_1
 62
     1
100
AcDbVertex
100
AcDb2dVertex
 10
249.6713450294137
 20
-114.481593749343
 30
0.0
  0
VERTEX
  5
A8
330
A3
100
AcDbEntity
  8
LAYER_1
 62
     1
100
AcDbVertex
100
AcDb2dVertex
 10
253.2941253687341
 20
-115.4445102569811
 30
0.0
  0
VERTEX
  5
A9
330
A3
100
AcDbEntity
  8
LAYER_1
 62
     1
100
AcDbVertex
100
AcDb2dVertex
 10
247.382391560924
 20
-137.6923669323291
 30
0.0
  0
VERTEX
  5
AA
330
A3
100
AcDbEntity
  8
LAYER_1
 62
     1
100
AcDbVertex
100
AcDb2dVertex
 10
243.7564138378919
 20
-136.7309491816359
 30
0.0
  0
VERTEX
  5
AB
330
A3
100
AcDbEntity
  8
LAYER_1
 62
     1
100
AcDbVertex
100
AcDb2dVertex
 10
243.5016187261782
 20
-137.691814196248
 30
0.0
  0
VERTEX
  5
AC
330
A3
100
AcDbEntity
  8
LAYER_1
 62
     1
100
AcDbVertex
100
AcDb2dVertex
 10
238.6686373231796
 20
-136.407942973601
 30
0.0
  0
VERTEX
  5
AD
330
A3
100
AcDbEntity
  8
LAYER_1
 62
     1
100
AcDbVertex
100
AcDb2dVertex
 10
238.9233593247986
 20
-135.4469219890513
 30
0.0
  0
VERTEX
  5
AE
330
A3
100
AcDbEntity
  8
LAYER_1
 62
     1
100
AcDbVertex
100
AcDb2dVertex
 10
235.3005594892336
 20
-134.4840146201791
 30
0.0
  0
VERTEX
  5
AF
330
A3
100
AcDbEntity
  8
LAYER_1
 62
     1
100
AcDbVertex
100
AcDb2dVertex
 10
241.2155637908521
 20
-112.2348151578232
 30
0.0
  0
VERTEX
  5
B0
330
A3
100
AcDbEntity
  8
LAYER_1
 62
     1
100
AcDbVertex
100
AcDb2dVertex
 10
244.8383441301738
 20
-113.1977316654593
 30
0.0
  0
SEQEND
  5
B1
330
A3
100
AcDbEntity
  8
LAYER_1
 62
     1
  0
SPLINE
  5
B2
330
1F
100
AcDbEntity
  8
LAYER_1
 62
     1
100
AcDbSpline
210
0.0
220
0.0
230
1.0
 70
    11
 71
     3
 72
    17
 73
    13
 74
     0
 42
0.0000000001
 43
0.0000000001
 12
1.0
 22
0.0
 32
0.0
 13
1.0
 23
0.0
 33
0.0
 40
0.0
 40
0.0
 40
0.0
 40
0.0
 40
1.0
 40
1.0
 40
1.0
 40
2.0
 40
2.0
 40
2.0
 40
3.0
 40
3.0
 40
3.0
 40
4.0
 40
4.0
 40
4.0
 40
4.0
 10
185.7337170033962
 20
-68.63803029703199
 30
0.0
 10
186.56210976004
 20
-68.63803029703199
 30
0.0
 10
187.2337280762389
 20
-67.96641196386975
 30
0.0
 10
187.2337280762389
 20
-67.1380544640771
 30
0.0
 10
187.2337280762389
 20
-66.30966168650309
 30
0.0
 10
186.56210976004
 20
-65.63804335333765
 30
0.0
 10
185.7337170033962
 20
-65.63804335333765
 30
0.0
 10
184.9051878905964
 20
-65.63804335333765
 30
0.0
 10
184.2337459463205
 20
-66.30966168650309
 30
0.0
 10
184.2337459463205
 20
-67.1380544640771
 30
0.0
 10
184.2337459463205
 20
-67.96641196386975
 30
0.0
 10
184.9051878905964
 20
-68.63803029703199
 30
0.0
 10
185.7337170033962
 20
-68.63803029703199
 30
0.0
  0
SPLINE
  5
B3
330
1F
100
AcDbEntity
  8
LAYER_1
 62
     1
100
AcDbSpline
210
0.0
220
0.0
230
1.0
 70
    11
 71
     3
 72
    17
 73
    13
 74
     0
 42
0.0000000001
 43
0.0000000001
 12
1.0
 22
0.0
 32
0.0
 13
1.0
 23
0.0
 33
0.0
 40
0.0
 40
0.0
 40
0.0
 40
0.0
 40
1.0
 40
1.0
 40
1.0
 40
2.0
 40
2.0
 40
2.0
 40
3.0
 40
3.0
 40
3.0
 40
4.0
 40
4.0
 40
4.0
 40
4.0
 10
185.7337170033962
 20
-144.1380302781568
 30
0.0
 10
186.56210976004
 20
-144.1380302781568
 30
0.0
 10
187.2337280762389
 20
-143.4664119449952
 30
0.0
 10
187.2337280762389
 20
-142.6380544452026
 30
0.0
 10
187.2337280762389
 20
-141.8096616676279
 30
0.0
 10
186.56210976004
 20
-141.1380433344625
 30
0.0
 10
185.7337170033962
 20
-141.1380433344625
 30
0.0
 10
184.9051878905964
 20
-141.1380433344625
 30
0.0
 10
184.2337459463205
 20
-141.8096616676279
 30
0.0
 10
184.2337459463205
 20
-142.6380544452026
 30
0.0
 10
184.2337459463205
 20
-143.4664119449952
 30
0.0
 10
184.9051878905964
 20
-144.1380302781568
 30
0.0
 10
185.7337170033962
 20
-144.1380302781568
 30
0.0
  0
SPLINE
  5
B4
330
1F
100
AcDbEntity
  8
LAYER_1
 62
     1
100
AcDbSpline
210
0.0
220
0.0
230
1.0
 70
    11
 71
     3
 72
    17
 73
    13
 74
     0
 42
0.0000000001
 43
0.0000000001
 12
1.0
 22
0.0
 32
0.0
 13
1.0
 23
0.0
 33
0.0
 40
0.0
 40
0.0
 40
0.0
 40
0.0
 40
1.0
 40
1.0
 40
1.0
 40
2.0
 40
2.0
 40
2.0
 40
3.0
 40
3.0
 40
3.0
 40
4.0
 40
4.0
 40
4.0
 40
4.0
 10
153.2337170115212
 20
-68.63803029703199
 30
0.0
 10
154.062109768165
 20
-68.63803029703199
 30
0.0
 10
154.7337280843639
 20
-67.96641196386975
 30
0.0
 10
154.7337280843639
 20
-67.1380544640771
 30
0.0
 10
154.7337280843639
 20
-66.30966168650309
 30
0.0
 10
154.062109768165
 20
-65.63804335333765
 30
0.0
 10
153.2337170115212
 20
-65.63804335333765
 30
0.0
 10
152.4051878987214
 20
-65.63804335333765
 30
0.0
 10
151.7337459544455
 20
-66.30966168650309
 30
0.0
 10
151.7337459544455
 20
-67.1380544640771
 30
0.0
 10
151.7337459544455
 20
-67.96641196386975
 30
0.0
 10
152.4051878987214
 20
-68.63803029703199
 30
0.0
 10
153.2337170115212
 20
-68.63803029703199
 30
0.0
  0
SPLINE
  5
B5
330
1F
100
AcDbEntity
  8
LAYER_1
 62
     1
100
AcDbSpline
210
0.0
220
0.0
230
1.0
 70
    11
 71
     3
 72
    17
 73
    13
 74
     0
 42
0.0000000001
 43
0.0000000001
 12
1.0
 22
0.0
 32
0.0
 13
1.0
 23
0.0
 33
0.0
 40
0.0
 40
0.0
 40
0.0
 40
0.0
 40
1.0
 40
1.0
 40
1.0
 40
2.0
 40
2.0
 40
2.0
 40
3.0
 40
3.0
 40
3.0
 40
4.0
 40
4.0
 40
4.0
 40
4.0
 10
153.2337170115212
 20
-144.1380302781568
 30
0.0
 10
154.062109768165
 20
-144.1380302781568
 30
0.0
 10
154.7337280843639
 20
-143.4664119449952
 30
0.0
 10
154.7337280843639
 20
-142.6380544452026
 30
0.0
 10
154.7337280843639
 20
-141.8096616676279
 30
0.0
 10
154.062109768165
 20
-141.1380433344625
 30
0.0
 10
153.2337170115212
 20
-141.1380433344625
 30
0.0
 10
152.4051878987214
 20
-141.1380433344625
 30
0.0
 10
151.7337459544455
 20
-141.8096616676279
 30
0.0
 10
151.7337459544455
 20
-142.6380544452026
 30
0.0
 10
151.7337459544455
 20
-143.4664119449952
 30
0.0
 10
152.4051878987214
 20
-144.1380302781568
 30
0.0
 10
153.2337170115212
 20
-144.1380302781568
 30
0.0
  0
POLYLINE
  5
B6
330
1F
100
AcDbEntity
  8
LAYER_1
 62
     1
100
AcDb2dPolyline
 66
     1
 10
0.0
 20
0.0
 30
0.0
  0
VERTEX
  5
B7
330
B6
100
AcDbEntity
  8
LAYER_1
 62
     1
100
AcDbVertex
100
AcDb2dVertex
 10
86.82963408230208
 20
-135.1045040114921
 30
0.0
  0
VERTEX
  5
B8
330
B6
100
AcDbEntity
  8
LAYER_1
 62
     1
100
AcDbVertex
100
AcDb2dVertex
 10
89.06297496685173
 20
-130.6362085805714
 30
0.0
  0
VERTEX
  5
B9
330
B6
100
AcDbEntity
  8
LAYER_1
 62
     1
100
AcDbVertex
100
AcDb2dVertex
 10
89.98441476377246
 20
-131.0967620965449
 30
0.0
  0
VERTEX
  5
BA
330
B6
100
AcDbEntity
  8
LAYER_1
 62
     1
100
AcDbVertex
100
AcDb2dVertex
 10
91.66257312306853
 20
-127.7392328536603
 30
0.0
  0
VERTEX
  5
BB
330
B6
100
AcDbEntity
  8
LAYER_1
 62
     1
100
AcDbVertex
100
AcDb2dVertex
 10
112.2557953592643
 20
-138.0321254959992
 30
0.0
  0
VERTEX
  5
BC
330
B6
100
AcDbEntity
  8
LAYER_1
 62
     1
100
AcDbVertex
100
AcDb2dVertex
 10
110.5776369999683
 20
-141.3896547388825
 30
0.0
  0
VERTEX
  5
BD
330
B6
100
AcDbEntity
  8
LAYER_1
 62
     1
100
AcDbVertex
100
AcDb2dVertex
 10
111.4359615798312
 20
-141.8186620429111
 30
0.0
  0
VERTEX
  5
BE
330
B6
100
AcDbEntity
  8
LAYER_1
 62
     1
100
AcDbVertex
100
AcDb2dVertex
 10
109.2026206952816
 20
-146.2869574738312
 30
0.0
  0
VERTEX
  5
BF
330
B6
100
AcDbEntity
  8
LAYER_1
 62
     1
100
AcDbVertex
100
AcDb2dVertex
 10
108.3442961154189
 20
-145.8579501698025
 30
0.0
  0
VERTEX
  5
C0
330
B6
100
AcDbEntity
  8
LAYER_1
 62
     1
100
AcDbVertex
100
AcDb2dVertex
 10
106.6661473826747
 20
-149.2154601526269
 30
0.0
  0
VERTEX
  5
C1
330
B6
100
AcDbEntity
  8
LAYER_1
 62
     1
100
AcDbVertex
100
AcDb2dVertex
 10
86.0729251464782
 20
-138.922567510288
 30
0.0
  0
VERTEX
  5
C2
330
B6
100
AcDbEntity
  8
LAYER_1
 62
     1
100
AcDbVertex
100
AcDb2dVertex
 10
87.75107387922314
 20
-135.565057527465
 30
0.0
  0
VERTEX
  5
C3
330
B6
100
AcDbEntity
  8
LAYER_1
 62
     1
100
AcDbVertex
100
AcDb2dVertex
 10
86.82963408230208
 20
-135.1045040114921
 30
0.0
  0
SEQEND
  5
C4
330
B6
100
AcDbEntity
  8
LAYER_1
 62
     1
  0
POLYLINE
  5
C5
330
1F
100
AcDbEntity
  8
LAYER_1
 62
     1
100
AcDb2dPolyline
 66
     1
 10
0.0
 20
0.0
 30
0.0
  0
VERTEX
  5
C6
330
C5
100
AcDbEntity
  8
LAYER_1
 62
     1
100
AcDbVertex
100
AcDb2dVertex
 10
88.99649624716548
 20
-79.08132977762948
 30
0.0
  0
VERTEX
  5
C7
330
C5
100
AcDbEntity
  8
LAYER_1
 62
     1
100
AcDbVertex
100
AcDb2dVertex
 10
86.80133426322482
 20
-74.59415478339942
 30
0.0
  0
VERTEX
  5
C8
330
C5
100
AcDbEntity
  8
LAYER_1
 62
     1
100
AcDbVertex
100
AcDb2dVertex
 10
87.72666735262216
 20
-74.14147441703575
 30
0.0
  0
VERTEX
  5
C9
330
C5
100
AcDbEntity
  8
LAYER_1
 62
     1
100
AcDbVertex
100
AcDb2dVertex
 10
86.07719706403172
 20
-70.7697588503315
 30
0.0
  0
VERTEX
  5
CA
330
C5
100
AcDbEntity
  8
LAYER_1
 62
     1
100
AcDbVertex
100
AcDb2dVertex
 10
106.7574303425763
 20
-60.6528229228375
 30
0.0
  0
VERTEX
  5
CB
330
C5
100
AcDbEntity
  8
LAYER_1
 62
     1
100
AcDbVertex
100
AcDb2dVertex
 10
108.4069006311668
 20
-64.02453848954111
 30
0.0
  0
VERTEX
  5
CC
330
C5
100
AcDbEntity
  8
LAYER_1
 62
     1
100
AcDbVertex
100
AcDb2dVertex
 10
109.2688518273746
 20
-63.60286505350157
 30
0.0
  0
VERTEX
  5
CD
330
C5
100
AcDbEntity
  8
LAYER_1
 62
     1
100
AcDbVertex
100
AcDb2dVertex
 10
111.4640138113153
 20
-68.09004004773195
 30
0.0
  0
VERTEX
  5
CE
330
C5
100
AcDbEntity
  8
LAYER_1
 62
     1
100
AcDbVertex
100
AcDb2dVertex
 10
110.6020626151071
 20
-68.51171348377149
 30
0.0
  0
VERTEX
  5
CF
330
C5
100
AcDbEntity
  8
LAYER_1
 62
     1
100
AcDbVertex
100
AcDb2dVertex
 10
112.2515234417108
 20
-71.88340970903718
 30
0.0
  0
VERTEX
  5
D0
330
C5
100
AcDbEntity
  8
LAYER_1
 62
     1
100
AcDbVertex
100
AcDb2dVertex
 10
91.5712901631662
 20
-82.0003456365315
 30
0.0
  0
VERTEX
  5
D1
330
C5
100
AcDbEntity
  8
LAYER_1
 62
     1
100
AcDbVertex
100
AcDb2dVertex
 10
89.92182933656251
 20
-78.62864941126581
 30
0.0
  0
VERTEX
  5
D2
330
C5
100
AcDbEntity
  8
LAYER_1
 62
     1
100
AcDbVertex
100
AcDb2dVertex
 10
88.99649624716548
 20
-79.08132977762948
 30
0.0
  0
SEQEND
  5
D3
330
C5
100
AcDbEntity
  8
LAYER_1
 62
     1
  0
SPLINE
  5
D4
330
1F
100
AcDbEntity
  8
LAYER_1
 62
     1
100
AcDbSpline
210
0.0
220
0.0
230
1.0
 70
    11
 71
     3
 72
    17
 73
    13
 74
     0
 42
0.0000000001
 43
0.0000000001
 12
1.0
 22
0.0
 32
0.0
 13
1.0
 23
0.0
 33
0.0
 40
0.0
 40
0.0
 40
0.0
 40
0.0
 40
1.0
 40
1.0
 40
1.0
 40
2.0
 40
2.0
 40
2.0
 40
3.0
 40
3.0
 40
3.0
 40
4.0
 40
4.0
 40
4.0
 40
4.0
 10
259.4590137051026
 20
-54.72313835035039
 30
0.0
 10
261.1158678969292
 20
-54.7227031397998
 30
0.0
 10
262.459366408718
 20
-56.06549603586485
 30
0.0
 10
262.4598016192686
 20
-57.72235022769176
 30
0.0
 10
262.4602368298198
 20
-59.37920441951898
 30
0.0
 10
261.117443933751
 20
-60.72270293130815
 30
0.0
 10
259.460589741925
 20
-60.72313814186034
 30
0.0
 10
257.8037355500971
 20
-60.7235733524106
 30
0.0
 10
256.4602370383103
 20
-59.3807804563417
 30
0.0
 10
256.4598018277596
 20
-57.72392626451416
 30
0.0
 10
256.4593666172084
 20
-56.06707207268758
 30
0.0
 10
257.8021595132748
 20
-54.72357356090162
 30
0.0
 10
259.4590137051026
 20
-54.72313835035039
 30
0.0
  0
SPLINE
  5
D5
330
1F
100
AcDbEntity
  8
LAYER_1
 62
     1
100
AcDbSpline
210
0.0
220
0.0
230
1.0
 70
    11
 71
     3
 72
    17
 73
    13
 74
     0
 42
0.0000000001
 43
0.0000000001
 12
1.0
 22
0.0
 32
0.0
 13
1.0
 23
0.0
 33
0.0
 40
0.0
 40
0.0
 40
0.0
 40
0.0
 40
1.0
 40
1.0
 40
1.0
 40
2.0
 40
2.0
 40
2.0
 40
3.0
 40
3.0
 40
3.0
 40
4.0
 40
4.0
 40
4.0
 40
4.0
 10
254.9606077094168
 20
-61.47412404478059
 30
0.0
 10
255.3748212573731
 20
-61.47401524214391
 30
0.0
 10
255.7106958853189
 20
-61.80971346616065
 30
0.0
 10
255.7108046879572
 20
-62.22392701411441
 30
0.0
 10
255.7109134905948
 20
-62.63814056207202
 30
0.0
 10
255.3752152665787
 20
-62.97401519001875
 30
0.0
 10
254.961001718623
 20
-62.97412399265703
 30
0.0
 10
254.5467881706654
 20
-62.974232795295
 30
0.0
 10
254.2109135427197
 20
-62.63853457127794
 30
0.0
 10
254.2108047400826
 20
-62.22432102332033
 30
0.0
 10
254.210695937445
 20
-61.81010747536561
 30
0.0
 10
254.5463941614598
 20
-61.47423284741888
 30
0.0
 10
254.9606077094168
 20
-61.47412404478059
 30
0.0
  0
SPLINE
  5
D6
330
1F
100
AcDbEntity
  8
LAYER_1
 62
     1
100
AcDbSpline
210
0.0
220
0.0
230
1.0
 70
    11
 71
     3
 72
    17
 73
    13
 74
     0
 42
0.0000000001
 43
0.0000000001
 12
1.0
 22
0.0
 32
0.0
 13
1.0
 23
0.0
 33
0.0
 40
0.0
 40
0.0
 40
0.0
 40
0.0
 40
1.0
 40
1.0
 40
1.0
 40
2.0
 40
2.0
 40
2.0
 40
3.0
 40
3.0
 40
3.0
 40
4.0
 40
4.0
 40
4.0
 40
4.0
 10
263.9609656805929
 20
-61.47175989543573
 30
0.0
 10
264.3751792285499
 20
-61.47165109279808
 30
0.0
 10
264.7110538564969
 20
-61.80734931681579
 30
0.0
 10
264.7111626591352
 20
-62.22156286476891
 30
0.0
 10
264.7112714617722
 20
-62.63577641272683
 30
0.0
 10
264.3755732377555
 20
-62.97165104067324
 30
0.0
 10
263.9613596897985
 20
-62.97175984331089
 30
0.0
 10
263.5471461418422
 20
-62.97186864594886
 30
0.0
 10
263.211271513897
 20
-62.63617042193307
 30
0.0
 10
263.2111627112594
 20
-62.22195687397483
 30
0.0
 10
263.2110539086217
 20
-61.80774332602075
 30
0.0
 10
263.5467521326366
 20
-61.4718686980737
 30
0.0
 10
263.9609656805929
 20
-61.47175989543573
 30
0.0
  0
SPLINE
  5
D7
330
1F
100
AcDbEntity
  8
LAYER_1
 62
     1
100
AcDbSpline
210
0.0
220
0.0
230
1.0
 70
    11
 71
     3
 72
    17
 73
    13
 74
     0
 42
0.0000000001
 43
0.0000000001
 12
1.0
 22
0.0
 32
0.0
 13
1.0
 23
0.0
 33
0.0
 40
0.0
 40
0.0
 40
0.0
 40
0.0
 40
1.0
 40
1.0
 40
1.0
 40
2.0
 40
2.0
 40
2.0
 40
3.0
 40
3.0
 40
3.0
 40
4.0
 40
4.0
 40
4.0
 40
4.0
 10
254.9582437572278
 20
-52.4745166488992
 30
0.0
 10
255.3724573051835
 20
-52.47440784626091
 30
0.0
 10
255.7083319331306
 20
-52.81010607027734
 30
0.0
 10
255.7084407357676
 20
-53.22431961823526
 30
0.0
 10
255.7085495384052
 20
-53.63853316618934
 30
0.0
 10
255.3728513143885
 20
-53.97440779414249
 30
0.0
 10
254.9586377664335
 20
-53.97451659678109
 30
0.0
 10
254.5444242184759
 20
-53.97462539941842
 30
0.0
 10
254.2085495905301
 20
-53.63892717539494
 30
0.0
 10
254.2084407878931
 20
-53.22471362744086
 30
0.0
 10
254.2083319852548
 20
-52.81050007948294
 30
0.0
 10
254.5440302092709
 20
-52.47462545153684
 30
0.0
 10
254.9582437572278
 20
-52.4745166488992
 30
0.0
  0
SPLINE
  5
D8
330
1F
100
AcDbEntity
  8
LAYER_1
 62
     1
100
AcDbSpline
210
0.0
220
0.0
230
1.0
 70
    11
 71
     3
 72
    17
 73
    13
 74
     0
 42
0.0000000001
 43
0.0000000001
 12
1.0
 22
0.0
 32
0.0
 13
1.0
 23
0.0
 33
0.0
 40
0.0
 40
0.0
 40
0.0
 40
0.0
 40
1.0
 40
1.0
 40
1.0
 40
2.0
 40
2.0
 40
2.0
 40
3.0
 40
3.0
 40
3.0
 40
4.0
 40
4.0
 40
4.0
 40
4.0
 10
263.9586017284033
 20
-52.47215249955401
 30
0.0
 10
264.3728152763603
 20
-52.47204369691541
 30
0.0
 10
264.708689904308
 20
-52.80774192093247
 30
0.0
 10
264.7087987069456
 20
-53.22195546889008
 30
0.0
 10
264.7089075095833
 20
-53.63616901684384
 30
0.0
 10
264.3732092855665
 20
-53.9720436447973
 30
0.0
 10
263.9589957376089
 20
-53.97215244743559
 30
0.0
 10
263.5447821896519
 20
-53.97226125007292
 30
0.0
 10
263.2089075617075
 20
-53.63656302604976
 30
0.0
 10
263.2087987590692
 20
-53.22234947809568
 30
0.0
 10
263.2086899564316
 20
-52.80813593013807
 30
0.0
 10
263.5443881804476
 20
-52.47226130219134
 30
0.0
 10
263.9586017284033
 20
-52.47215249955401
 30
0.0
  0
SPLINE
  5
D9
330
1F
100
AcDbEntity
  8
LAYER_1
 62
     7
100
AcDbSpline
210
0.0
220
0.0
230
1.0
 70
    11
 71
     3
 72
    95
 73
    91
 74
     0
 42
0.0000000001
 43
0.0000000001
 12
1.0
 22
0.0
 32
0.0
 13
1.0
 23
0.0
 33
0.0
 40
0.0
 40
0.0
 40
0.0
 40
0.0
 40
1.0
 40
1.0
 40
1.0
 40
2.0
 40
2.0
 40
2.0
 40
3.0
 40
3.0
 40
3.0
 40
4.0
 40
4.0
 40
4.0
 40
5.0
 40
5.0
 40
5.0
 40
6.0
 40
6.0
 40
6.0
 40
7.0
 40
7.0
 40
7.0
 40
8.0
 40
8.0
 40
8.0
 40
9.0
 40
9.0
 40
9.0
 40
10.0
 40
10.0
 40
10.0
 40
11.0
 40
11.0
 40
11.0
 40
12.0
 40
12.0
 40
12.0
 40
13.0
 40
13.0
 40
13.0
 40
14.0
 40
14.0
 40
14.0
 40
15.0
 40
15.0
 40
15.0
 40
16.0
 40
16.0
 40
16.0
 40
17.0
 40
17.0
 40
17.0
 40
18.0
 40
18.0
 40
18.0
 40
19.0
 40
19.0
 40
19.0
 40
20.0
 40
20.0
 40
20.0
 40
21.0
 40
21.0
 40
21.0
 40
22.0
 40
22.0
 40
22.0
 40
23.0
 40
23.0
 40
23.0
 40
24.0
 40
24.0
 40
24.0
 40
25.0
 40
25.0
 40
25.0
 40
26.0
 40
26.0
 40
26.0
 40
27.0
 40
27.0
 40
27.0
 40
28.0
 40
28.0
 40
28.0
 40
29.0
 40
29.0
 40
29.0
 40
30.0
 40
30.0
 40
30.0
 40
30.0
 10
212.2859992045028
 20
-53.98787697614998
 30
0.0
 10
213.2563938163395
 20
-54.96129222497629
 30
0.0
 10
213.0658299997889
 20
-54.77082849400347
 30
0.0
 10
213.5810193177838
 20
-55.2504873261896
 30
0.0
 10
213.7998000387979
 20
-55.47972250274235
 30
0.0
 10
214.1596986293012
 20
-55.70187969732773
 30
0.0
 10
214.5618832034349
 20
-55.83230011407369
 30
0.0
 10
215.0769909700088
 20
-56.0014912582097
 30
0.0
 10
215.666127519735
 20
-56.01546140003166
 30
0.0
 10
216.1281793534007
 20
-55.68725927082902
 30
0.0
 10
216.1281793534007
 20
-55.68725927082902
 30
0.0
 10
219.1439627591581
 20
-53.84495584688896
 30
0.0
 10
219.1439627591581
 20
-53.84495584688896
 30
0.0
 10
219.1439627591581
 20
-53.84495584688896
 30
0.0
 10
217.0984590557277
 20
-56.22321200366075
 30
0.0
 10
217.0984590557277
 20
-56.22321200366075
 30
0.0
 10
216.6364424352628
 20
-56.68547140630909
 30
0.0
 10
216.4778801725802
 20
-57.33463366365917
 30
0.0
 10
216.6191349639724
 20
-57.93079188600276
 30
0.0
 10
216.6897791462237
 20
-58.25179164445679
 30
0.0
 10
216.8521443661351
 20
-58.555154259011
 30
0.0
 10
217.1026685878935
 20
-58.80554690352697
 30
0.0
 10
217.1026685878935
 20
-58.80554690352697
 30
0.0
 10
218.376525679186
 20
-60.07875648150068
 30
0.0
 10
218.376525679186
 20
-60.07875648150068
 30
0.0
 10
219.0928620581884
 20
-60.79116481326894
 30
0.0
 10
220.2499834643779
 20
-60.7908608689347
 30
0.0
 10
220.9588624285085
 20
-60.08158786298867
 30
0.0
 10
220.9588624285085
 20
-60.08158786298867
 30
0.0
 10
222.3942933702443
 20
-58.64540262575418
 30
0.0
 10
222.3942933702443
 20
-58.64540262575418
 30
0.0
 10
222.3942933702443
 20
-58.64540262575418
 30
0.0
 10
222.4295748016526
 20
-58.61012419203455
 30
0.0
 10
222.4295748016526
 20
-58.61012419203455
 30
0.0
 10
222.4295748016526
 20
-58.61012419203455
 30
0.0
 10
222.4154601024576
 20
-58.64892828882319
 30
0.0
 10
222.4154601024576
 20
-58.64892828882319
 30
0.0
 10
222.4154601024576
 20
-58.64892828882319
 30
0.0
 10
221.3579218742815
 20
-61.67604554127968
 30
0.0
 10
221.3579218742815
 20
-61.67604554127968
 30
0.0
 10
221.0265601103959
 20
-62.62863691999731
 30
0.0
 10
221.6300022435982
 20
-63.33050276888126
 30
0.0
 10
222.3816179838776
 20
-64.08172375480895
 30
0.0
 10
222.3816179838776
 20
-64.08172375480895
 30
0.0
 10
223.0132483012358
 20
-64.71302233508163
 30
0.0
 10
223.6413680057882
 20
-65.34081214634918
 30
0.0
 10
224.4388586250515
 20
-66.13788391742384
 30
0.0
 10
226.1776009959754
 20
-64.42644199714536
 30
0.0
 10
226.5089627598609
 20
-63.47385061842742
 30
0.0
 10
226.5089627598609
 20
-63.47385061842742
 30
0.0
 10
227.8485048435192
 20
-59.63176498976999
 30
0.0
 10
227.8485048435192
 20
-59.63176498976999
 30
0.0
 10
228.8751370466519
 20
-59.85374705156156
 30
0.0
 10
230.0076299967224
 20
-60.11450169585307
 30
0.0
 10
231.3694294773059
 20
-60.4281213887723
 30
0.0
 10
232.8441278358139
 20
-60.76991814648389
 30
0.0
 10
236.717931236941
 20
-61.95069758693888
 30
0.0
 10
239.1665369015353
 20
-63.19537033829386
 30
0.0
 10
241.6151425604742
 20
-64.44002155780205
 30
0.0
 10
248.0856976555403
 20
-66.72786786183728
 30
0.0
 10
250.8867539750386
 20
-66.72713210049473
 30
0.0
 10
253.691341517286
 20
-66.72639541159612
 30
0.0
 10
265.463533830116
 20
-66.72330317672716
 30
0.0
 10
265.463533830116
 20
-66.72330317672716
 30
0.0
 10
267.1109999661753
 20
-66.72287043216342
 30
0.0
 10
268.4617899280066
 20
-65.37137065228303
 30
0.0
 10
268.4613562558858
 20
-63.72037329347461
 30
0.0
 10
268.4613562558858
 20
-63.72037329347461
 30
0.0
 10
268.4582047139791
 20
-51.72239804306928
 30
0.0
 10
268.4582047139791
 20
-51.72239804306928
 30
0.0
 10
268.4577710418577
 20
-50.07140068426053
 30
0.0
 10
267.106271261978
 20
-48.72061072242829
 30
0.0
 10
265.4588051259207
 20
-48.72104346699204
 30
0.0
 10
265.4588051259207
 20
-48.72104346699204
 30
0.0
 10
217.4563319878903
 20
-48.73365241163707
 30
0.0
 10
217.4563319878903
 20
-48.73365241163707
 30
0.0
 10
216.86013670289
 20
-48.73380901592972
 30
0.0
 10
216.306319359766
 20
-48.91034338361937
 30
0.0
 10
215.840729816112
 20
-49.21384941297038
 30
0.0
 10
215.840729816112
 20
-49.21384941297038
 30
0.0
 10
215.6679036647353
 20
-49.33384873226605
 30
0.0
 10
215.6679036647353
 20
-49.33384873226605
 30
0.0
 10
215.6679036647353
 20
-49.33384873226605
 30
0.0
 10
215.6538030825907
 20
-49.34442457324058
 30
0.0
 10
215.6538030825907
 20
-49.34442457324058
 30
0.0
 10
215.6538030825907
 20
-49.34442457324058
 30
0.0
 10
212.9802373528674
 20
-51.2325009411312
 30
0.0
 10
212.9802373528674
 20
-51.2325009411312
 30
0.0
 10
212.1584120243583
 20
-51.81478724646126
 30
0.0
 10
211.4037860595719
 20
-52.96504450622514
 30
0.0
 10
212.2859992045028
 20
-53.98787697614998
 30
0.0
  0
SPLINE
  5
DA
330
1F
100
AcDbEntity
  8
LAYER_1
 62
     1
100
AcDbSpline
210
0.0
220
0.0
230
1.0
 70
    11
 71
     3
 72
    17
 73
    13
 74
     0
 42
0.0000000001
 43
0.0000000001
 12
1.0
 22
0.0
 32
0.0
 13
1.0
 23
0.0
 33
0.0
 40
0.0
 40
0.0
 40
0.0
 40
0.0
 40
1.0
 40
1.0
 40
1.0
 40
2.0
 40
2.0
 40
2.0
 40
3.0
 40
3.0
 40
3.0
 40
4.0
 40
4.0
 40
4.0
 40
4.0
 10
259.2853820503519
 20
-155.3080531663965
 30
0.0
 10
260.9422362193398
 20
-155.3085680319101
 30
0.0
 10
262.2857992857209
 20
-153.9658397274646
 30
0.0
 10
262.2863141512319
 20
-152.3089855584754
 30
0.0
 10
262.2868290167473
 20
-150.6521313894863
 30
0.0
 10
260.9441007122973
 20
-149.3085683231045
 30
0.0
 10
259.2872465433094
 20
-149.3080534575904
 30
0.0
 10
257.6303923743184
 20
-149.3075385920781
 30
0.0
 10
256.2868293079405
 20
-150.6502668965288
 30
0.0
 10
256.2863144424282
 20
-152.3071210655179
 30
0.0
 10
256.2857995769141
 20
-153.9639752345071
 30
0.0
 10
257.6285278813622
 20
-155.3075383008843
 30
0.0
 10
259.2853820503519
 20
-155.3080531663965
 30
0.0
  0
SPLINE
  5
DB
330
1F
100
AcDbEntity
  8
LAYER_1
 62
     1
100
AcDbSpline
210
0.0
220
0.0
230
1.0
 70
    11
 71
     3
 72
    17
 73
    13
 74
     0
 42
0.0000000001
 43
0.0000000001
 12
1.0
 22
0.0
 32
0.0
 13
1.0
 23
0.0
 33
0.0
 40
0.0
 40
0.0
 40
0.0
 40
0.0
 40
1.0
 40
1.0
 40
1.0
 40
2.0
 40
2.0
 40
2.0
 40
3.0
 40
3.0
 40
3.0
 40
4.0
 40
4.0
 40
4.0
 40
4.0
 10
254.7873006204177
 20
-148.5568512142921
 30
0.0
 10
255.2015141626648
 20
-148.5569799306701
 30
0.0
 10
255.5374049292593
 20
-148.2212978545579
 30
0.0
 10
255.5375336456367
 20
-147.8070843123128
 30
0.0
 10
255.5376623620154
 20
-147.3928707700637
 30
0.0
 10
255.2019802859039
 20
-147.0569800034692
 30
0.0
 10
254.7877667436574
 20
-147.0568512870918
 30
0.0
 10
254.3735532014103
 20
-147.0567225707131
 30
0.0
 10
254.0376624348171
 20
-147.3924046468259
 30
0.0
 10
254.037533718439
 20
-147.8066181890737
 30
0.0
 10
254.037405002059
 20
-148.2208317313176
 30
0.0
 10
254.3730870781699
 20
-148.556722497914
 30
0.0
 10
254.7873006204177
 20
-148.5568512142921
 30
0.0
  0
SPLINE
  5
DC
330
1F
100
AcDbEntity
  8
LAYER_1
 62
     1
100
AcDbSpline
210
0.0
220
0.0
230
1.0
 70
    11
 71
     3
 72
    17
 73
    13
 74
     0
 42
0.0000000001
 43
0.0000000001
 12
1.0
 22
0.0
 32
0.0
 13
1.0
 23
0.0
 33
0.0
 40
0.0
 40
0.0
 40
0.0
 40
0.0
 40
1.0
 40
1.0
 40
1.0
 40
2.0
 40
2.0
 40
2.0
 40
3.0
 40
3.0
 40
3.0
 40
4.0
 40
4.0
 40
4.0
 40
4.0
 10
263.7876584675328
 20
-148.5596480650638
 30
0.0
 10
264.2018720097819
 20
-148.5597767814425
 30
0.0
 10
264.5377627763751
 20
-148.2240947053303
 30
0.0
 10
264.5378914927544
 20
-147.8098811630857
 30
0.0
 10
264.5380202091331
 20
-147.3956676208379
 30
0.0
 10
264.2023381330209
 20
-147.0597768542435
 30
0.0
 10
263.7881245907726
 20
-147.0596481378648
 30
0.0
 10
263.3739110485254
 20
-147.0595194214861
 30
0.0
 10
263.0380202819322
 20
-147.3952014975982
 30
0.0
 10
263.0378915655548
 20
-147.809415039846
 30
0.0
 10
263.0377628491748
 20
-148.2236285820912
 30
0.0
 10
263.3734449252863
 20
-148.5595193486863
 30
0.0
 10
263.7876584675328
 20
-148.5596480650638
 30
0.0
  0
SPLINE
  5
DD
330
1F
100
AcDbEntity
  8
LAYER_1
 62
     1
100
AcDbSpline
210
0.0
220
0.0
230
1.0
 70
    11
 71
     3
 72
    17
 73
    13
 74
     0
 42
0.0000000001
 43
0.0000000001
 12
1.0
 22
0.0
 32
0.0
 13
1.0
 23
0.0
 33
0.0
 40
0.0
 40
0.0
 40
0.0
 40
0.0
 40
1.0
 40
1.0
 40
1.0
 40
2.0
 40
2.0
 40
2.0
 40
3.0
 40
3.0
 40
3.0
 40
4.0
 40
4.0
 40
4.0
 40
4.0
 10
254.7845040028863
 20
-157.5564584861234
 30
0.0
 10
255.1987175451321
 20
-157.5565872025021
 30
0.0
 10
255.5346083117253
 20
-157.2209051263906
 30
0.0
 10
255.5347370281047
 20
-156.8066915841422
 30
0.0
 10
255.534865744484
 20
-156.3924780418976
 30
0.0
 10
255.1991836683718
 20
-156.0565872752974
 30
0.0
 10
254.7849701261241
 20
-156.0564585589167
 30
0.0
 10
254.3707565838769
 20
-156.0563298425393
 30
0.0
 10
254.0348658172844
 20
-156.3920119186586
 30
0.0
 10
254.0347371009063
 20
-156.8062254609025
 30
0.0
 10
254.0346083845276
 20
-157.2204390031515
 30
0.0
 10
254.3702904606379
 20
-157.556329769746
 30
0.0
 10
254.7845040028863
 20
-157.5564584861234
 30
0.0
  0
SPLINE
  5
DE
330
1F
100
AcDbEntity
  8
LAYER_1
 62
     1
100
AcDbSpline
210
0.0
220
0.0
230
1.0
 70
    11
 71
     3
 72
    17
 73
    13
 74
     0
 42
0.0000000001
 43
0.0000000001
 12
1.0
 22
0.0
 32
0.0
 13
1.0
 23
0.0
 33
0.0
 40
0.0
 40
0.0
 40
0.0
 40
0.0
 40
1.0
 40
1.0
 40
1.0
 40
2.0
 40
2.0
 40
2.0
 40
3.0
 40
3.0
 40
3.0
 40
4.0
 40
4.0
 40
4.0
 40
4.0
 10
263.7848618500001
 20
-157.5592553368964
 30
0.0
 10
264.1990753922486
 20
-157.5593840532751
 30
0.0
 10
264.534966158845
 20
-157.2237019771636
 30
0.0
 10
264.5350948752224
 20
-156.8094884349145
 30
0.0
 10
264.5352235915998
 20
-156.3952748926706
 30
0.0
 10
264.1995415154882
 20
-156.0593841260684
 30
0.0
 10
263.7853279732392
 20
-156.059255409691
 30
0.0
 10
263.371114430994
 20
-156.0591266933123
 30
0.0
 10
263.0352236644002
 20
-156.3948087694309
 30
0.0
 10
263.0350949480221
 20
-156.8090223116748
 30
0.0
 10
263.0349662316434
 20
-157.2232358539245
 30
0.0
 10
263.3706483077549
 20
-157.559126620519
 30
0.0
 10
263.7848618500001
 20
-157.5592553368964
 30
0.0
  0
SPLINE
  5
DF
330
1F
100
AcDbEntity
  8
LAYER_1
 62
     7
100
AcDbSpline
210
0.0
220
0.0
230
1.0
 70
    11
 71
     3
 72
    95
 73
    91
 74
     0
 42
0.0000000001
 43
0.0000000001
 12
1.0
 22
0.0
 32
0.0
 13
1.0
 23
0.0
 33
0.0
 40
0.0
 40
0.0
 40
0.0
 40
0.0
 40
1.0
 40
1.0
 40
1.0
 40
2.0
 40
2.0
 40
2.0
 40
3.0
 40
3.0
 40
3.0
 40
4.0
 40
4.0
 40
4.0
 40
5.0
 40
5.0
 40
5.0
 40
6.0
 40
6.0
 40
6.0
 40
7.0
 40
7.0
 40
7.0
 40
8.0
 40
8.0
 40
8.0
 40
9.0
 40
9.0
 40
9.0
 40
10.0
 40
10.0
 40
10.0
 40
11.0
 40
11.0
 40
11.0
 40
12.0
 40
12.0
 40
12.0
 40
13.0
 40
13.0
 40
13.0
 40
14.0
 40
14.0
 40
14.0
 40
15.0
 40
15.0
 40
15.0
 40
16.0
 40
16.0
 40
16.0
 40
17.0
 40
17.0
 40
17.0
 40
18.0
 40
18.0
 40
18.0
 40
19.0
 40
19.0
 40
19.0
 40
20.0
 40
20.0
 40
20.0
 40
21.0
 40
21.0
 40
21.0
 40
22.0
 40
22.0
 40
22.0
 40
23.0
 40
23.0
 40
23.0
 40
24.0
 40
24.0
 40
24.0
 40
25.0
 40
25.0
 40
25.0
 40
26.0
 40
26.0
 40
26.0
 40
27.0
 40
27.0
 40
27.0
 40
28.0
 40
28.0
 40
28.0
 40
29.0
 40
29.0
 40
29.0
 40
30.0
 40
30.0
 40
30.0
 40
30.0
 10
212.1123322558231
 20
-156.0410466487476
 30
0.0
 10
213.0827736644734
 20
-155.0676780537606
 30
0.0
 10
212.8922006914037
 20
-155.2581326229626
 30
0.0
 10
213.407413068894
 20
-154.7784985595856
 30
0.0
 10
213.6262048103704
 20
-154.5492739014054
 30
0.0
 10
213.9861140808929
 20
-154.3271340095708
 30
0.0
 10
214.3883049246579
 20
-154.1967329284101
 30
0.0
 10
214.903420824674
 20
-154.0275665488043
 30
0.0
 10
215.4925580453466
 20
-154.0136247303404
 30
0.0
 10
215.9545940998267
 20
-154.3418490727796
 30
0.0
 10
215.9545940998267
 20
-154.3418490727796
 30
0.0
 10
218.9702889314742
 20
-156.1842974814671
 30
0.0
 10
218.9702889314742
 20
-156.1842974814671
 30
0.0
 10
218.9702889314742
 20
-156.1842974814671
 30
0.0
 10
216.9248995675092
 20
-153.8059429877567
 30
0.0
 10
216.9248995675092
 20
-153.8059429877567
 30
0.0
 10
216.462905171172
 20
-153.3436613737212
 30
0.0
 10
216.3043741178129
 20
-152.6944914940775
 30
0.0
 10
216.4456575699585
 20
-152.0983400633915
 30
0.0
 10
216.5163171845205
 20
-151.777343701601
 30
0.0
 10
216.6786969887117
 20
-151.4739888932716
 30
0.0
 10
216.9292332480652
 20
-151.2236082932528
 30
0.0
 10
216.9292332480652
 20
-151.2236082932528
 30
0.0
 10
218.2031515487395
 20
-149.9504599587367
 30
0.0
 10
218.2031515487395
 20
-149.9504599587367
 30
0.0
 10
218.919522176675
 20
-149.2380860663951
 30
0.0
 10
220.076643566915
 20
-149.2384456405267
 30
0.0
 10
220.7854884312016
 20
-149.9477527257355
 30
0.0
 10
220.7854884312016
 20
-149.9477527257355
 30
0.0
 10
222.2208503252006
 20
-151.3840069711229
 30
0.0
 10
222.2208503252006
 20
-151.3840069711229
 30
0.0
 10
222.2208503252006
 20
-151.3840069711229
 30
0.0
 10
222.2561300605214
 20
-151.419287100993
 30
0.0
 10
222.2561300605214
 20
-151.419287100993
 30
0.0
 10
222.2561300605214
 20
-151.419287100993
 30
0.0
 10
222.2420172268885
 20
-151.3804823256696
 30
0.0
 10
222.2420172268885
 20
-151.3804823256696
 30
0.0
 10
222.2420172268885
 20
-151.3804823256696
 30
0.0
 10
221.1846245316974
 20
-148.353314234479
 30
0.0
 10
221.1846245316974
 20
-148.353314234479
 30
0.0
 10
220.8533085650016
 20
-147.400706926305
 30
0.0
 10
221.456784440427
 20
-146.6988700893321
 30
0.0
 10
222.2084362955559
 20
-145.9476852389686
 30
0.0
 10
222.2084362955559
 20
-145.9476852389686
 30
0.0
 10
222.8400969625091
 20
-145.3164170257009
 30
0.0
 10
223.4682468479756
 20
-144.6886574126563
 30
0.0
 10
224.265775786358
 20
-143.8916239826825
 30
0.0
 10
226.0044358759494
 20
-145.6031494928044
 30
0.0
 10
226.3357518426453
 20
-146.5557568009759
 30
0.0
 10
226.3357518426453
 20
-146.5557568009759
 30
0.0
 10
227.675109212553
 20
-150.3979068250518
 30
0.0
 10
227.675109212553
 20
-150.3979068250518
 30
0.0
 10
228.7017520865131
 20
-150.1759741199118
 30
0.0
 10
229.8342575713235
 20
-149.9152739216806
 30
0.0
 10
231.19607212792
 20
-149.6017196990296
 30
0.0
 10
232.6707869169535
 20
-149.2599938393475
 30
0.0
 10
236.5446470807845
 20
-148.0794006373233
 30
0.0
 10
238.9933125814682
 20
-146.8348456066331
 30
0.0
 10
241.4419780754595
 20
-145.5903121077891
 30
0.0
 10
247.9126431536033
 20
-143.3027768849634
 30
0.0
 10
250.7136994344918
 20
-143.3036473099571
 30
0.0
 10
253.5182869380801
 20
-143.3045188322742
 30
0.0
 10
265.2904790886431
 20
-143.3081770273449
 30
0.0
 10
265.2904790886431
 20
-143.3081770273449
 30
0.0
 10
266.9379452019945
 20
-143.3086889755316
 30
0.0
 10
268.2886701875295
 20
-144.6602536944596
 30
0.0
 10
268.2881571420188
 20
-146.3112510305108
 30
0.0
 10
268.2881571420188
 20
-146.3112510305108
 30
0.0
 10
268.2844287851627
 20
-158.3092261155391
 30
0.0
 10
268.2844287851627
 20
-158.3092261155391
 30
0.0
 10
268.283915739652
 20
-159.960223451589
 30
0.0
 10
266.9323510207234
 20
-161.3109484371233
 30
0.0
 10
265.2848849073745
 20
-161.3104364889386
 30
0.0
 10
265.2848849073745
 20
-161.3104364889386
 30
0.0
 10
217.282412431007
 20
-161.2955197762331
 30
0.0
 10
217.282412431007
 20
-161.2955197762331
 30
0.0
 10
216.6862171542231
 20
-161.2953345092429
 30
0.0
 10
216.1324082988112
 20
-161.1187735164206
 30
0.0
 10
215.6668333470571
 20
-160.815245103727
 30
0.0
 10
215.6668333470571
 20
-160.815245103727
 30
0.0
 10
215.4940129649713
 20
-160.6952374757731
 30
0.0
 10
215.4940129649713
 20
-160.6952374757731
 30
0.0
 10
215.4940129649713
 20
-160.6952374757731
 30
0.0
 10
215.4799128912877
 20
-160.6846609569125
 30
0.0
 10
215.4799128912877
 20
-160.6846609569125
 30
0.0
 10
215.4799128912877
 20
-160.6846609569125
 30
0.0
 10
212.8064379358575
 20
-158.7964560567922
 30
0.0
 10
212.8064379358575
 20
-158.7964560567922
 30
0.0
 10
211.9846406023103
 20
-158.2141302420401
 30
0.0
 10
211.2300699381923
 20
-157.063836704189
 30
0.0
 10
212.1123322558231
 20
-156.0410466487476
 30
0.0
  0
SPLINE
  5
E0
330
1F
100
AcDbEntity
  8
LAYER_1
 62
     7
100
AcDbSpline
210
0.0
220
0.0
230
1.0
 70
    11
 71
     3
 72
    50
 73
    46
 74
     0
 42
0.0000000001
 43
0.0000000001
 12
1.0
 22
0.0
 32
0.0
 13
1.0
 23
0.0
 33
0.0
 40
0.0
 40
0.0
 40
0.0
 40
0.0
 40
1.0
 40
1.0
 40
1.0
 40
2.0
 40
2.0
 40
2.0
 40
3.0
 40
3.0
 40
3.0
 40
4.0
 40
4.0
 40
4.0
 40
5.0
 40
5.0
 40
5.0
 40
6.0
 40
6.0
 40
6.0
 40
7.0
 40
7.0
 40
7.0
 40
8.0
 40
8.0
 40
8.0
 40
9.0
 40
9.0
 40
9.0
 40
10.0
 40
10.0
 40
10.0
 40
11.0
 40
11.0
 40
11.0
 40
12.0
 40
12.0
 40
12.0
 40
13.0
 40
13.0
 40
13.0
 40
14.0
 40
14.0
 40
14.0
 40
15.0
 40
15.0
 40
15.0
 40
15.0
 10
282.8767441010298
 20
-98.29419173010318
 30
0.0
 10
282.8767441010298
 20
-98.29419173010318
 30
0.0
 10
282.5598672153934
 20
-99.21218069308725
 30
0.0
 10
282.5598672153934
 20
-99.21218069308725
 30
0.0
 10
282.5598672153934
 20
-99.21218069308725
 30
0.0
 10
268.2145919770383
 20
-140.4599352396155
 30
0.0
 10
268.2145919770383
 20
-140.4599352396155
 30
0.0
 10
267.6730371881238
 20
-142.0184589868506
 30
0.0
 10
265.9531809443387
 20
-142.8499206772877
 30
0.0
 10
264.3945735155203
 20
-142.3048571951011
 30
0.0
 10
264.3945735155203
 20
-142.3048571951011
 30
0.0
 10
253.0614570720932
 20
-138.3652949567802
 30
0.0
 10
253.0614570720932
 20
-138.3652949567802
 30
0.0
 10
251.5029338382405
 20
-137.8237616935914
 30
0.0
 10
250.668025610387
 20
-136.1074983380441
 30
0.0
 10
251.2130890925742
 20
-134.5488909092264
 30
0.0
 10
251.2130890925742
 20
-134.5488909092264
 30
0.0
 10
260.2711776868838
 20
-108.4951336189693
 30
0.0
 10
260.2711776868838
 20
-108.4951336189693
 30
0.0
 10
260.2711776868838
 20
-108.4951336189693
 30
0.0
 10
266.9854558189877
 20
-105.9389650107894
 30
0.0
 10
266.9854558189877
 20
-105.9389650107894
 30
0.0
 10
266.9854558189877
 20
-105.9389650107894
 30
0.0
 10
262.7877383686123
 20
-94.90575852507614
 30
0.0
 10
262.7877383686123
 20
-94.90575852507614
 30
0.0
 10
262.7877383686123
 20
-94.90575852507614
 30
0.0
 10
262.7842081496127
 20
-94.90584272004148
 30
0.0
 10
262.7842081496127
 20
-94.90584272004148
 30
0.0
 10
262.7842081496127
 20
-94.90584272004148
 30
0.0
 10
255.2430642287696
 20
-75.07399436789987
 30
0.0
 10
255.2430642287696
 20
-75.07399436789987
 30
0.0
 10
254.6558783600196
 20
-73.53532638909815
 30
0.0
 10
255.4365758356839
 20
-71.79466009229984
 30
0.0
 10
256.9787740334847
 20
-71.20739002858485
 30
0.0
 10
256.9787740334847
 20
-71.20739002858485
 30
0.0
 10
268.1972687047105
 20
-66.93820579505999
 30
0.0
 10
268.1972687047105
 20
-66.93820579505999
 30
0.0
 10
269.7395505840933
 20
-66.35444442461811
 30
0.0
 10
271.480216880891
 20
-67.1351419002827
 30
0.0
 10
272.0639567256076
 20
-68.67742429304882
 30
0.0
 10
272.0639567256076
 20
-68.67742429304882
 30
0.0
 10
282.7297325597088
 20
-96.71681094772961
 30
0.0
 10
282.7297325597088
 20
-96.71681094772961
 30
0.0
 10
282.9291731638043
 20
-97.23783924846828
 30
0.0
 10
282.9703465801865
 20
-97.78028178486073
 30
0.0
 10
282.8767441010298
 20
-98.29419173010318
 30
0.0
  0
SPLINE
  5
E1
330
1F
100
AcDbEntity
  8
LAYER_1
 62
     1
100
AcDbSpline
210
0.0
220
0.0
230
1.0
 70
    11
 71
     3
 72
    17
 73
    13
 74
     0
 42
0.0000000001
 43
0.0000000001
 12
1.0
 22
0.0
 32
0.0
 13
1.0
 23
0.0
 33
0.0
 40
0.0
 40
0.0
 40
0.0
 40
0.0
 40
1.0
 40
1.0
 40
1.0
 40
2.0
 40
2.0
 40
2.0
 40
3.0
 40
3.0
 40
3.0
 40
4.0
 40
4.0
 40
4.0
 40
4.0
 10
268.5906136726977
 20
-76.41793090582891
 30
0.0
 10
269.1796432882097
 20
-77.96654645348063
 30
0.0
 10
268.4017451915266
 20
-79.69945024887235
 30
0.0
 10
266.8531296438743
 20
-80.28847986438699
 30
0.0
 10
265.3045140962258
 20
-80.87750947989777
 30
0.0
 10
263.5716103008331
 20
-80.09961138321853
 30
0.0
 10
262.9825806853191
 20
-78.55099583556682
 30
0.0
 10
262.3935510698051
 20
-77.00238028791351
 30
0.0
 10
263.1714491664882
 20
-75.26947649251922
 30
0.0
 10
264.7200647141373
 20
-74.68044687700683
 30
0.0
 10
266.2686802617897
 20
-74.09141726149379
 30
0.0
 10
268.001584057183
 20
-74.86931535817592
 30
0.0
 10
268.5906136726977
 20
-76.41793090582891
 30
0.0
  0
SPLINE
  5
E2
330
1F
100
AcDbEntity
  8
LAYER_1
 62
     1
100
AcDbSpline
210
0.0
220
0.0
230
1.0
 70
    11
 71
     3
 72
    17
 73
    13
 74
     0
 42
0.0000000001
 43
0.0000000001
 12
1.0
 22
0.0
 32
0.0
 13
1.0
 23
0.0
 33
0.0
 40
0.0
 40
0.0
 40
0.0
 40
0.0
 40
1.0
 40
1.0
 40
1.0
 40
2.0
 40
2.0
 40
2.0
 40
3.0
 40
3.0
 40
3.0
 40
4.0
 40
4.0
 40
4.0
 40
4.0
 10
260.6818975096114
 20
-74.61136704032516
 30
0.0
 10
260.8291549134904
 20
-74.99852092723648
 30
0.0
 10
260.6346803893198
 20
-75.4317468760829
 30
0.0
 10
260.2475265024026
 20
-75.57900427996347
 30
0.0
 10
259.860372615492
 20
-75.72626168384085
 30
0.0
 10
259.4271466666443
 20
-75.53178715967184
 30
0.0
 10
259.2798892627659
 20
-75.14463327275924
 30
0.0
 10
259.1326318588876
 20
-74.75747938584662
 30
0.0
 10
259.3271063830576
 20
-74.32425343699958
 30
0.0
 10
259.7142602699682
 20
-74.17699603312091
 30
0.0
 10
260.101414156886
 20
-74.0297386292413
 30
0.0
 10
260.5346401057337
 20
-74.22421315341191
 30
0.0
 10
260.6818975096114
 20
-74.61136704032516
 30
0.0
  0
SPLINE
  5
E3
330
1F
100
AcDbEntity
  8
LAYER_1
 62
     1
100
AcDbSpline
210
0.0
220
0.0
230
1.0
 70
    11
 71
     3
 72
    17
 73
    13
 74
     0
 42
0.0000000001
 43
0.0000000001
 12
1.0
 22
0.0
 32
0.0
 13
1.0
 23
0.0
 33
0.0
 40
0.0
 40
0.0
 40
0.0
 40
0.0
 40
1.0
 40
1.0
 40
1.0
 40
2.0
 40
2.0
 40
2.0
 40
3.0
 40
3.0
 40
3.0
 40
4.0
 40
4.0
 40
4.0
 40
4.0
 10
263.8816222780312
 20
-83.02375139940439
 30
0.0
 10
264.0288796819102
 20
-83.4109052863186
 30
0.0
 10
263.8344051577389
 20
-83.8441312351634
 30
0.0
 10
263.4472512708218
 20
-83.99138863904302
 30
0.0
 10
263.0600973839111
 20
-84.13864604291976
 30
0.0
 10
262.6268714350634
 20
-83.94417151875427
 30
0.0
 10
262.4796140311857
 20
-83.55701763183846
 30
0.0
 10
262.3323566273068
 20
-83.16986374492554
 30
0.0
 10
262.5268311514767
 20
-82.73663779607848
 30
0.0
 10
262.913985038388
 20
-82.58938039220047
 30
0.0
 10
263.3011389253045
 20
-82.44212298832021
 30
0.0
 10
263.7343648741535
 20
-82.63659751248986
 30
0.0
 10
263.8816222780312
 20
-83.02375139940439
 30
0.0
  0
SPLINE
  5
E4
330
1F
100
AcDbEntity
  8
LAYER_1
 62
     1
100
AcDbSpline
210
0.0
220
0.0
230
1.0
 70
    11
 71
     3
 72
    17
 73
    13
 74
     0
 42
0.0000000001
 43
0.0000000001
 12
1.0
 22
0.0
 32
0.0
 13
1.0
 23
0.0
 33
0.0
 40
0.0
 40
0.0
 40
0.0
 40
0.0
 40
1.0
 40
1.0
 40
1.0
 40
2.0
 40
2.0
 40
2.0
 40
3.0
 40
3.0
 40
3.0
 40
4.0
 40
4.0
 40
4.0
 40
4.0
 10
269.0935803268297
 20
-71.41190910955567
 30
0.0
 10
269.2408377307081
 20
-71.79906299646635
 30
0.0
 10
269.0463632065375
 20
-72.23228894531437
 30
0.0
 10
268.659209319621
 20
-72.3795463491943
 30
0.0
 10
268.2720554327103
 20
-72.52680375307104
 30
0.0
 10
267.838829483862
 20
-72.33232922890139
 30
0.0
 10
267.691572079985
 20
-71.94517534198974
 30
0.0
 10
267.544314676106
 20
-71.55802145507714
 30
0.0
 10
267.738789200276
 20
-71.12479550622976
 30
0.0
 10
268.1259430871873
 20
-70.9775381023511
 30
0.0
 10
268.5130969741044
 20
-70.83028069847181
 30
0.0
 10
268.9463229229514
 20
-71.02475522264146
 30
0.0
 10
269.0935803268297
 20
-71.41190910955567
 30
0.0
  0
SPLINE
  5
E5
330
1F
100
AcDbEntity
  8
LAYER_1
 62
     1
100
AcDbSpline
210
0.0
220
0.0
230
1.0
 70
    11
 71
     3
 72
    17
 73
    13
 74
     0
 42
0.0000000001
 43
0.0000000001
 12
1.0
 22
0.0
 32
0.0
 13
1.0
 23
0.0
 33
0.0
 40
0.0
 40
0.0
 40
0.0
 40
0.0
 40
1.0
 40
1.0
 40
1.0
 40
2.0
 40
2.0
 40
2.0
 40
3.0
 40
3.0
 40
3.0
 40
4.0
 40
4.0
 40
4.0
 40
4.0
 10
272.2933050952495
 20
-79.82429346863618
 30
0.0
 10
272.4405624991292
 20
-80.21144735554911
 30
0.0
 10
272.246087974956
 20
-80.6446733043939
 30
0.0
 10
271.8589340880395
 20
-80.79193070827353
 30
0.0
 10
271.4717802011288
 20
-80.93918811215156
 30
0.0
 10
271.0385542522818
 20
-80.74471358798446
 30
0.0
 10
270.8912968484047
 20
-80.35755970107026
 30
0.0
 10
270.7440394445258
 20
-79.97040581415636
 30
0.0
 10
270.9385139686951
 20
-79.53717986530867
 30
0.0
 10
271.3256678556064
 20
-79.38992246143162
 30
0.0
 10
271.7128217425242
 20
-79.24266505755232
 30
0.0
 10
272.1460476913705
 20
-79.43713958172196
 30
0.0
 10
272.2933050952495
 20
-79.82429346863618
 30
0.0
  0
SPLINE
  5
E6
330
1F
100
AcDbEntity
  8
LAYER_1
 62
     1
100
AcDbSpline
210
0.0
220
0.0
230
1.0
 70
    11
 71
     3
 72
    17
 73
    13
 74
     0
 42
0.0000000001
 43
0.0000000001
 12
1.0
 22
0.0
 32
0.0
 13
1.0
 23
0.0
 33
0.0
 40
0.0
 40
0.0
 40
0.0
 40
0.0
 40
1.0
 40
1.0
 40
1.0
 40
2.0
 40
2.0
 40
2.0
 40
3.0
 40
3.0
 40
3.0
 40
4.0
 40
4.0
 40
4.0
 40
4.0
 10
274.9899358357231
 20
-93.24236474597566
 30
0.0
 10
275.5789654512352
 20
-94.7909802936277
 30
0.0
 10
274.801067354556
 20
-96.52388408901814
 30
0.0
 10
273.2524518069037
 20
-97.11291370453117
 30
0.0
 10
271.7038362592513
 20
-97.70194332004516
 30
0.0
 10
269.9709324638579
 20
-96.92404522336592
 30
0.0
 10
269.3819028483433
 20
-95.37542967571325
 30
0.0
 10
268.7928732328293
 20
-93.82681412806058
 30
0.0
 10
269.5707713295118
 20
-92.09391033266628
 30
0.0
 10
271.1193868771641
 20
-91.50488071715196
 30
0.0
 10
272.6680024248171
 20
-90.91585110163894
 30
0.0
 10
274.4009062202079
 20
-91.69374919832268
 30
0.0
 10
274.9899358357231
 20
-93.24236474597566
 30
0.0
  0
SPLINE
  5
E7
330
1F
100
AcDbEntity
  8
LAYER_1
 62
     1
100
AcDbSpline
210
0.0
220
0.0
230
1.0
 70
    11
 71
     3
 72
    17
 73
    13
 74
     0
 42
0.0000000001
 43
0.0000000001
 12
1.0
 22
0.0
 32
0.0
 13
1.0
 23
0.0
 33
0.0
 40
0.0
 40
0.0
 40
0.0
 40
0.0
 40
1.0
 40
1.0
 40
1.0
 40
2.0
 40
2.0
 40
2.0
 40
3.0
 40
3.0
 40
3.0
 40
4.0
 40
4.0
 40
4.0
 40
4.0
 10
267.0812196726375
 20
-91.43580088047062
 30
0.0
 10
267.2284770765152
 20
-91.82295476738291
 30
0.0
 10
267.0340025523453
 20
-92.25618071622996
 30
0.0
 10
266.646848665432
 20
-92.40343812010798
 30
0.0
 10
266.2596947785169
 20
-92.55069552398727
 30
0.0
 10
265.8264688296698
 20
-92.35622099981731
 30
0.0
 10
265.6792114257914
 20
-91.96906711290599
 30
0.0
 10
265.5319540219137
 20
-91.58191322599401
 30
0.0
 10
265.7264285460831
 20
-91.14868727714568
 30
0.0
 10
266.1135824329983
 20
-91.0014298732667
 30
0.0
 10
266.5007363199115
 20
-90.85417246938869
 30
0.0
 10
266.9339622687585
 20
-91.04864699355898
 30
0.0
 10
267.0812196726375
 20
-91.43580088047062
 30
0.0
  0
SPLINE
  5
E8
330
1F
100
AcDbEntity
  8
LAYER_1
 62
     1
100
AcDbSpline
210
0.0
220
0.0
230
1.0
 70
    11
 71
     3
 72
    17
 73
    13
 74
     0
 42
0.0000000001
 43
0.0000000001
 12
1.0
 22
0.0
 32
0.0
 13
1.0
 23
0.0
 33
0.0
 40
0.0
 40
0.0
 40
0.0
 40
0.0
 40
1.0
 40
1.0
 40
1.0
 40
2.0
 40
2.0
 40
2.0
 40
3.0
 40
3.0
 40
3.0
 40
4.0
 40
4.0
 40
4.0
 40
4.0
 10
270.2809444410566
 20
-99.84818523955146
 30
0.0
 10
270.4282018449344
 20
-100.2353391264647
 30
0.0
 10
270.2337273207638
 20
-100.6685650753089
 30
0.0
 10
269.8465734338505
 20
-100.8158224791888
 30
0.0
 10
269.4594195469347
 20
-100.9630798830672
 30
0.0
 10
269.0261935980902
 20
-100.7686053589017
 30
0.0
 10
268.8789361942112
 20
-100.3814514719849
 30
0.0
 10
268.7316787903316
 20
-99.9942975850726
 30
0.0
 10
268.9261533145022
 20
-99.56107163622427
 30
0.0
 10
269.3133072014174
 20
-99.41381423234594
 30
0.0
 10
269.7004610883307
 20
-99.26655682846567
 30
0.0
 10
270.1336870371764
 20
-99.46103135263692
 30
0.0
 10
270.2809444410566
 20
-99.84818523955146
 30
0.0
  0
SPLINE
  5
E9
330
1F
100
AcDbEntity
  8
LAYER_1
 62
     1
100
AcDbSpline
210
0.0
220
0.0
230
1.0
 70
    11
 71
     3
 72
    17
 73
    13
 74
     0
 42
0.0000000001
 43
0.0000000001
 12
1.0
 22
0.0
 32
0.0
 13
1.0
 23
0.0
 33
0.0
 40
0.0
 40
0.0
 40
0.0
 40
0.0
 40
1.0
 40
1.0
 40
1.0
 40
2.0
 40
2.0
 40
2.0
 40
3.0
 40
3.0
 40
3.0
 40
4.0
 40
4.0
 40
4.0
 40
4.0
 10
275.4929024898559
 20
-88.23634294970306
 30
0.0
 10
275.640159893733
 20
-88.62349683661277
 30
0.0
 10
275.4456853695636
 20
-89.05672278546047
 30
0.0
 10
275.0585314826472
 20
-89.20398018934009
 30
0.0
 10
274.6713775957378
 20
-89.3512375932165
 30
0.0
 10
274.2381516468882
 20
-89.15676306904781
 30
0.0
 10
274.0908942430098
 20
-88.7696091821368
 30
0.0
 10
273.9436368391315
 20
-88.38245529522388
 30
0.0
 10
274.1381113633047
 20
-87.9492293463749
 30
0.0
 10
274.525265250216
 20
-87.80197194249817
 30
0.0
 10
274.9124191371299
 20
-87.65471453861791
 30
0.0
 10
275.3456450859763
 20
-87.84918906278853
 30
0.0
 10
275.4929024898559
 20
-88.23634294970306
 30
0.0
  0
SPLINE
  5
EA
330
1F
100
AcDbEntity
  8
LAYER_1
 62
     1
100
AcDbSpline
210
0.0
220
0.0
230
1.0
 70
    11
 71
     3
 72
    17
 73
    13
 74
     0
 42
0.0000000001
 43
0.0000000001
 12
1.0
 22
0.0
 32
0.0
 13
1.0
 23
0.0
 33
0.0
 40
0.0
 40
0.0
 40
0.0
 40
0.0
 40
1.0
 40
1.0
 40
1.0
 40
2.0
 40
2.0
 40
2.0
 40
3.0
 40
3.0
 40
3.0
 40
4.0
 40
4.0
 40
4.0
 40
4.0
 10
269.3777691596682
 20
-111.6156553689251
 30
0.0
 10
269.2689275551775
 20
-111.9286412236018
 30
0.0
 10
268.9269688346192
 20
-112.0941328365402
 30
0.0
 10
268.6139829799457
 20
-111.9852912320456
 30
0.0
 10
268.3009971252678
 20
-111.8764496275504
 30
0.0
 10
268.1355055123306
 20
-111.534490906996
 30
0.0
 10
268.2443471168258
 20
-111.2215050523244
 30
0.0
 10
268.3531887213198
 20
-110.9085191976458
 30
0.0
 10
268.6951474418749
 20
-110.7430275847087
 30
0.0
 10
269.0081332965497
 20
-110.8518691892045
 30
0.0
 10
269.3211191512231
 20
-110.9607107936972
 30
0.0
 10
269.4866107641628
 20
-111.3026695142491
 30
0.0
 10
269.3777691596682
 20
-111.6156553689251
 30
0.0
  0
SPLINE
  5
EB
330
1F
100
AcDbEntity
  8
LAYER_1
 62
     1
100
AcDbSpline
210
0.0
220
0.0
230
1.0
 70
    11
 71
     3
 72
    17
 73
    13
 74
     0
 42
0.0000000001
 43
0.0000000001
 12
1.0
 22
0.0
 32
0.0
 13
1.0
 23
0.0
 33
0.0
 40
0.0
 40
0.0
 40
0.0
 40
0.0
 40
1.0
 40
1.0
 40
1.0
 40
2.0
 40
2.0
 40
2.0
 40
3.0
 40
3.0
 40
3.0
 40
4.0
 40
4.0
 40
4.0
 40
4.0
 10
260.1814758698818
 20
-138.0605955047342
 30
0.0
 10
260.0726342653866
 20
-138.3735813594116
 30
0.0
 10
259.7306755448366
 20
-138.5390729723494
 30
0.0
 10
259.4176896901593
 20
-138.4302313678522
 30
0.0
 10
259.1047038354845
 20
-138.3213897633614
 30
0.0
 10
258.9392122225455
 20
-137.9794310428057
 30
0.0
 10
259.0480538270414
 20
-137.666445188131
 30
0.0
 10
259.1568954315366
 20
-137.3534593334588
 30
0.0
 10
259.4988541520866
 20
-137.1879677205204
 30
0.0
 10
259.8118400067651
 20
-137.2968093250124
 30
0.0
 10
260.1248258614386
 20
-137.4056509295057
 30
0.0
 10
260.2903174743784
 20
-137.7476096500614
 30
0.0
 10
260.1814758698818
 20
-138.0605955047342
 30
0.0
  0
POLYLINE
  5
EC
330
1F
100
AcDbEntity
  8
LAYER_1
 62
     1
100
AcDb2dPolyline
 66
     1
 10
0.0
 20
0.0
 30
0.0
  0
VERTEX
  5
ED
330
EC
100
AcDbEntity
  8
LAYER_1
 62
     1
100
AcDbVertex
100
AcDb2dVertex
 10
265.6338492360995
 20
-112.9126228118981
 30
0.0
  0
VERTEX
  5
EE
330
EC
100
AcDbEntity
  8
LAYER_1
 62
     1
100
AcDbVertex
100
AcDb2dVertex
 10
265.9618194959033
 20
-111.9688724504293
 30
0.0
  0
VERTEX
  5
EF
330
EC
100
AcDbEntity
  8
LAYER_1
 62
     1
100
AcDbVertex
100
AcDb2dVertex
 10
270.6852451390335
 20
-113.6106549379428
 30
0.0
  0
VERTEX
  5
F0
330
EC
100
AcDbEntity
  8
LAYER_1
 62
     1
100
AcDbVertex
100
AcDb2dVertex
 10
270.3572748792304
 20
-114.5544052994122
 30
0.0
  0
VERTEX
  5
F1
330
EC
100
AcDbEntity
  8
LAYER_1
 62
     1
100
AcDbVertex
100
AcDb2dVertex
 10
273.8978778046192
 20
-115.7856146692496
 30
0.0
  0
VERTEX
  5
F2
330
EC
100
AcDbEntity
  8
LAYER_1
 62
     1
100
AcDbVertex
100
AcDb2dVertex
 10
266.3385261014963
 20
-137.5289337601736
 30
0.0
  0
VERTEX
  5
F3
330
EC
100
AcDbEntity
  8
LAYER_1
 62
     1
100
AcDbVertex
100
AcDb2dVertex
 10
262.7946226403815
 20
-136.2989797782822
 30
0.0
  0
VERTEX
  5
F4
330
EC
100
AcDbEntity
  8
LAYER_1
 62
     1
100
AcDbVertex
100
AcDb2dVertex
 10
262.4686669091408
 20
-137.2380937152097
 30
0.0
  0
VERTEX
  5
F5
330
EC
100
AcDbEntity
  8
LAYER_1
 62
     1
100
AcDbVertex
100
AcDb2dVertex
 10
257.7452613912267
 20
-135.5963035728897
 30
0.0
  0
VERTEX
  5
F6
330
EC
100
AcDbEntity
  8
LAYER_1
 62
     1
100
AcDbVertex
100
AcDb2dVertex
 10
258.0711558840321
 20
-134.6570286342204
 30
0.0
  0
VERTEX
  5
F7
330
EC
100
AcDbEntity
  8
LAYER_1
 62
     1
100
AcDbVertex
100
AcDb2dVertex
 10
254.5305328334239
 20
-133.4258269191884
 30
0.0
  0
VERTEX
  5
F8
330
EC
100
AcDbEntity
  8
LAYER_1
 62
     1
100
AcDbVertex
100
AcDb2dVertex
 10
262.0932463107094
 20
-111.6814134420607
 30
0.0
  0
VERTEX
  5
F9
330
EC
100
AcDbEntity
  8
LAYER_1
 62
     1
100
AcDbVertex
100
AcDb2dVertex
 10
265.6338492360995
 20
-112.9126228118981
 30
0.0
  0
SEQEND
  5
FA
330
EC
100
AcDbEntity
  8
LAYER_1
 62
     1
  0
SPLINE
  5
FB
330
1F
100
AcDbEntity
  8
LAYER_1
 62
     1
100
AcDbSpline
210
0.0
220
0.0
230
1.0
 70
    11
 71
     3
 72
    17
 73
    13
 74
     0
 42
0.0000000001
 43
0.0000000001
 12
1.0
 22
0.0
 32
0.0
 13
1.0
 23
0.0
 33
0.0
 40
0.0
 40
0.0
 40
0.0
 40
0.0
 40
1.0
 40
1.0
 40
1.0
 40
2.0
 40
2.0
 40
2.0
 40
3.0
 40
3.0
 40
3.0
 40
4.0
 40
4.0
 40
4.0
 40
4.0
 10
74.2451352613552
 20
-95.88784672403408
 30
0.0
 10
74.2451352613552
 20
-97.54470097302064
 30
0.0
 10
72.90198951108957
 20
-98.88784672328404
 30
0.0
 10
71.24513526210396
 20
-98.88784672328404
 30
0.0
 10
69.58828101312125
 20
-98.88784672328404
 30
0.0
 10
68.24513526285529
 20
-97.54470097302064
 30
0.0
 10
68.24513526285529
 20
-95.88784672403408
 30
0.0
 10
68.24513526285529
 20
-94.23099247504751
 30
0.0
 10
69.58828101312125
 20
-92.88784672478413
 30
0.0
 10
71.24513526210396
 20
-92.88784672478413
 30
0.0
 10
72.90198951108957
 20
-92.88784672478413
 30
0.0
 10
74.2451352613552
 20
-94.23099247504751
 30
0.0
 10
74.2451352613552
 20
-95.88784672403408
 30
0.0
  0
SPLINE
  5
FC
330
1F
100
AcDbEntity
  8
LAYER_1
 62
     1
100
AcDbSpline
210
0.0
220
0.0
230
1.0
 70
    11
 71
     3
 72
    17
 73
    13
 74
     0
 42
0.0000000001
 43
0.0000000001
 12
1.0
 22
0.0
 32
0.0
 13
1.0
 23
0.0
 33
0.0
 40
0.0
 40
0.0
 40
0.0
 40
0.0
 40
1.0
 40
1.0
 40
1.0
 40
2.0
 40
2.0
 40
2.0
 40
3.0
 40
3.0
 40
3.0
 40
4.0
 40
4.0
 40
4.0
 40
4.0
 10
67.49533140874233
 20
-91.38766758319593
 30
0.0
 10
67.49533140874233
 20
-91.80188114544289
 30
0.0
 10
67.15954497117649
 20
-92.13766758300713
 30
0.0
 10
66.74533140892568
 20
-92.13766758300713
 30
0.0
 10
66.33111784668128
 20
-92.13766758300713
 30
0.0
 10
65.99533140911575
 20
-91.80188114544289
 30
0.0
 10
65.99533140911575
 20
-91.38766758319593
 30
0.0
 10
65.99533140911575
 20
-90.97345402095024
 30
0.0
 10
66.33111784668128
 20
-90.63766758338343
 30
0.0
 10
66.74533140892568
 20
-90.63766758338343
 30
0.0
 10
67.15954497117649
 20
-90.63766758338343
 30
0.0
 10
67.49533140874233
 20
-90.97345402095024
 30
0.0
 10
67.49533140874233
 20
-91.38766758319593
 30
0.0
  0
SPLINE
  5
FD
330
1F
100
AcDbEntity
  8
LAYER_1
 62
     1
100
AcDbSpline
210
0.0
220
0.0
230
1.0
 70
    11
 71
     3
 72
    17
 73
    13
 74
     0
 42
0.0000000001
 43
0.0000000001
 12
1.0
 22
0.0
 32
0.0
 13
1.0
 23
0.0
 33
0.0
 40
0.0
 40
0.0
 40
0.0
 40
0.0
 40
1.0
 40
1.0
 40
1.0
 40
2.0
 40
2.0
 40
2.0
 40
3.0
 40
3.0
 40
3.0
 40
4.0
 40
4.0
 40
4.0
 40
4.0
 10
76.49493911509474
 20
-91.38766758319593
 30
0.0
 10
76.49493911509474
 20
-91.80188114544289
 30
0.0
 10
76.1591526775292
 20
-92.13766758300713
 30
0.0
 10
75.74493911527871
 20
-92.13766758300713
 30
0.0
 10
75.330725553034
 20
-92.13766758300713
 30
0.0
 10
74.99493911546847
 20
-91.80188114544289
 30
0.0
 10
74.99493911546847
 20
-91.38766758319593
 30
0.0
 10
74.99493911546847
 20
-90.97345402095024
 30
0.0
 10
75.330725553034
 20
-90.63766758338343
 30
0.0
 10
75.74493911527871
 20
-90.63766758338343
 30
0.0
 10
76.1591526775292
 20
-90.63766758338343
 30
0.0
 10
76.49493911509474
 20
-90.97345402095024
 30
0.0
 10
76.49493911509474
 20
-91.38766758319593
 30
0.0
  0
SPLINE
  5
FE
330
1F
100
AcDbEntity
  8
LAYER_1
 62
     1
100
AcDbSpline
210
0.0
220
0.0
230
1.0
 70
    11
 71
     3
 72
    17
 73
    13
 74
     0
 42
0.0000000001
 43
0.0000000001
 12
1.0
 22
0.0
 32
0.0
 13
1.0
 23
0.0
 33
0.0
 40
0.0
 40
0.0
 40
0.0
 40
0.0
 40
1.0
 40
1.0
 40
1.0
 40
2.0
 40
2.0
 40
2.0
 40
3.0
 40
3.0
 40
3.0
 40
4.0
 40
4.0
 40
4.0
 40
4.0
 10
74.2451352613552
 20
-113.888205003459
 30
0.0
 10
74.2451352613552
 20
-115.5450592524455
 30
0.0
 10
72.90198951109309
 20
-116.8882050027089
 30
0.0
 10
71.24513526210653
 20
-116.8882050027089
 30
0.0
 10
69.58828101312125
 20
-116.8882050027089
 30
0.0
 10
68.24513526285529
 20
-115.5450592524455
 30
0.0
 10
68.24513526285529
 20
-113.888205003459
 30
0.0
 10
68.24513526285529
 20
-112.2313507544724
 30
0.0
 10
69.58828101312125
 20
-110.888205004209
 30
0.0
 10
71.24513526210653
 20
-110.888205004209
 30
0.0
 10
72.90198951109309
 20
-110.888205004209
 30
0.0
 10
74.2451352613552
 20
-112.2313507544724
 30
0.0
 10
74.2451352613552
 20
-113.888205003459
 30
0.0
  0
SPLINE
  5
FF
330
1F
100
AcDbEntity
  8
LAYER_1
 62
     1
100
AcDbSpline
210
0.0
220
0.0
230
1.0
 70
    11
 71
     3
 72
    17
 73
    13
 74
     0
 42
0.0000000001
 43
0.0000000001
 12
1.0
 22
0.0
 32
0.0
 13
1.0
 23
0.0
 33
0.0
 40
0.0
 40
0.0
 40
0.0
 40
0.0
 40
1.0
 40
1.0
 40
1.0
 40
2.0
 40
2.0
 40
2.0
 40
3.0
 40
3.0
 40
3.0
 40
4.0
 40
4.0
 40
4.0
 40
4.0
 10
67.49533140874266
 20
-118.3883841442971
 30
0.0
 10
67.49533140874266
 20
-118.8025977065428
 30
0.0
 10
67.15954497117745
 20
-119.1383841441083
 30
0.0
 10
66.74533140892953
 20
-119.1383841441083
 30
0.0
 10
66.33111784668192
 20
-119.1383841441083
 30
0.0
 10
65.99533140911639
 20
-118.8025977065428
 30
0.0
 10
65.99533140911639
 20
-118.3883841442971
 30
0.0
 10
65.99533140911639
 20
-117.9741705820514
 30
0.0
 10
66.33111784668192
 20
-117.6383841444846
 30
0.0
 10
66.74533140892953
 20
-117.6383841444846
 30
0.0
 10
67.15954497117745
 20
-117.6383841444846
 30
0.0
 10
67.49533140874266
 20
-117.9741705820514
 30
0.0
 10
67.49533140874266
 20
-118.3883841442971
 30
0.0
  0
SPLINE
  5
100
330
1F
100
AcDbEntity
  8
LAYER_1
 62
     1
100
AcDbSpline
210
0.0
220
0.0
230
1.0
 70
    11
 71
     3
 72
    17
 73
    13
 74
     0
 42
0.0000000001
 43
0.0000000001
 12
1.0
 22
0.0
 32
0.0
 13
1.0
 23
0.0
 33
0.0
 40
0.0
 40
0.0
 40
0.0
 40
0.0
 40
1.0
 40
1.0
 40
1.0
 40
2.0
 40
2.0
 40
2.0
 40
3.0
 40
3.0
 40
3.0
 40
4.0
 40
4.0
 40
4.0
 40
4.0
 10
76.49493911509474
 20
-118.3883841442971
 30
0.0
 10
76.49493911509474
 20
-118.8025977065428
 30
0.0
 10
76.1591526775292
 20
-119.1383841441083
 30
0.0
 10
75.74493911528096
 20
-119.1383841441083
 30
0.0
 10
75.33072555303785
 20
-119.1383841441083
 30
0.0
 10
74.99493911546847
 20
-118.8025977065428
 30
0.0
 10
74.99493911546847
 20
-118.3883841442971
 30
0.0
 10
74.99493911546847
 20
-117.9741705820514
 30
0.0
 10
75.33072555303785
 20
-117.6383841444846
 30
0.0
 10
75.74493911528096
 20
-117.6383841444846
 30
0.0
 10
76.1591526775292
 20
-117.6383841444846
 30
0.0
 10
76.49493911509474
 20
-117.9741705820514
 30
0.0
 10
76.49493911509474
 20
-118.3883841442971
 30
0.0
  0
SPLINE
  5
101
330
1F
100
AcDbEntity
  8
LAYER_1
 62
     1
100
AcDbSpline
210
0.0
220
0.0
230
1.0
 70
    11
 71
     3
 72
    17
 73
    13
 74
     0
 42
0.0000000001
 43
0.0000000001
 12
1.0
 22
0.0
 32
0.0
 13
1.0
 23
0.0
 33
0.0
 40
0.0
 40
0.0
 40
0.0
 40
0.0
 40
1.0
 40
1.0
 40
1.0
 40
2.0
 40
2.0
 40
2.0
 40
3.0
 40
3.0
 40
3.0
 40
4.0
 40
4.0
 40
4.0
 40
4.0
 10
212.6087337406724
 20
-67.138037805571
 30
0.0
 10
212.6087331992209
 20
-68.79489205455629
 30
0.0
 10
211.2655870100212
 20
-70.13803736588599
 30
0.0
 10
209.6087327610353
 20
-70.13803682443478
 30
0.0
 10
207.9518785120519
 20
-70.13803628298292
 30
0.0
 10
206.6087332007197
 20
-68.7948900937868
 30
0.0
 10
206.6087337421712
 20
-67.13803584480152
 30
0.0
 10
206.6087342836227
 20
-65.48118159581495
 30
0.0
 10
207.9518804728211
 20
-64.13803628448397
 30
0.0
 10
209.6087347218045
 20
-64.13803682593614
 30
0.0
 10
211.265588970791
 20
-64.13803736738735
 30
0.0
 10
212.6087342821239
 20
-65.48118355658444
 30
0.0
 10
212.6087337406724
 20
-67.138037805571
 30
0.0
  0
SPLINE
  5
102
330
1F
100
AcDbEntity
  8
LAYER_1
 62
     1
100
AcDbSpline
210
0.0
220
0.0
230
1.0
 70
    11
 71
     3
 72
    17
 73
    13
 74
     0
 42
0.0000000001
 43
0.0000000001
 12
1.0
 22
0.0
 32
0.0
 13
1.0
 23
0.0
 33
0.0
 40
0.0
 40
0.0
 40
0.0
 40
0.0
 40
1.0
 40
1.0
 40
1.0
 40
2.0
 40
2.0
 40
2.0
 40
3.0
 40
3.0
 40
3.0
 40
4.0
 40
4.0
 40
4.0
 40
4.0
 10
205.8589313586948
 20
-62.63785645893155
 30
0.0
 10
205.8589312233316
 20
-63.0520700211782
 30
0.0
 10
205.523144676033
 20
-63.38785634900965
 30
0.0
 10
205.1089311137822
 20
-63.38785621364709
 30
0.0
 10
204.6947175515378
 20
-63.38785607828453
 30
0.0
 10
204.3589312237054
 20
-63.0520695309859
 30
0.0
 10
204.3589313590685
 20
-62.63785596873862
 30
0.0
 10
204.3589314944311
 20
-62.22364240649198
 30
0.0
 10
204.6947180417304
 20
-61.88785607865827
 30
0.0
 10
205.1089316039748
 20
-61.8878562140218
 30
0.0
 10
205.5231451662256
 20
-61.88785634938468
 30
0.0
 10
205.8589314940574
 20
-62.22364289668459
 30
0.0
 10
205.8589313586948
 20
-62.63785645893155
 30
0.0
  0
SPLINE
  5
103
330
1F
100
AcDbEntity
  8
LAYER_1
 62
     1
100
AcDbSpline
210
0.0
220
0.0
230
1.0
 70
    11
 71
     3
 72
    17
 73
    13
 74
     0
 42
0.0000000001
 43
0.0000000001
 12
1.0
 22
0.0
 32
0.0
 13
1.0
 23
0.0
 33
0.0
 40
0.0
 40
0.0
 40
0.0
 40
0.0
 40
1.0
 40
1.0
 40
1.0
 40
2.0
 40
2.0
 40
2.0
 40
3.0
 40
3.0
 40
3.0
 40
4.0
 40
4.0
 40
4.0
 40
4.0
 10
205.8589284174236
 20
-71.63821474060721
 30
0.0
 10
205.8589282820604
 20
-72.05242830285289
 30
0.0
 10
205.5231417347624
 20
-72.38821463068531
 30
0.0
 10
205.108928172511
 20
-72.38821449532243
 30
0.0
 10
204.6947146102666
 20
-72.38821435995922
 30
0.0
 10
204.3589282824348
 20
-72.05242781266027
 30
0.0
 10
204.3589284177974
 20
-71.63821425041492
 30
0.0
 10
204.3589285531606
 20
-71.224000688167
 30
0.0
 10
204.6947151004592
 20
-70.88821436033457
 30
0.0
 10
205.1089286627036
 20
-70.88821449569745
 30
0.0
 10
205.5231422249538
 20
-70.88821463106001
 30
0.0
 10
205.8589285527862
 20
-71.22400117835896
 30
0.0
 10
205.8589284174236
 20
-71.63821474060721
 30
0.0
  0
SPLINE
  5
104
330
1F
100
AcDbEntity
  8
LAYER_1
 62
     1
100
AcDbSpline
210
0.0
220
0.0
230
1.0
 70
    11
 71
     3
 72
    17
 73
    13
 74
     0
 42
0.0000000001
 43
0.0000000001
 12
1.0
 22
0.0
 32
0.0
 13
1.0
 23
0.0
 33
0.0
 40
0.0
 40
0.0
 40
0.0
 40
0.0
 40
1.0
 40
1.0
 40
1.0
 40
2.0
 40
2.0
 40
2.0
 40
3.0
 40
3.0
 40
3.0
 40
4.0
 40
4.0
 40
4.0
 40
4.0
 10
214.8585390650462
 20
-62.63785939995729
 30
0.0
 10
214.858538929683
 20
-63.05207296220425
 30
0.0
 10
214.5227523823844
 20
-63.38785929003603
 30
0.0
 10
214.1085388201336
 20
-63.38785915467282
 30
0.0
 10
213.6943252578905
 20
-63.38785901930994
 30
0.0
 10
213.358538930058
 20
-63.05207247201228
 30
0.0
 10
213.3585390654213
 20
-62.63785890976531
 30
0.0
 10
213.3585392007838
 20
-62.22364534751803
 30
0.0
 10
213.6943257480825
 20
-61.88785901968496
 30
0.0
 10
214.1085393103256
 20
-61.88785915504752
 30
0.0
 10
214.522752872577
 20
-61.88785929041008
 30
0.0
 10
214.8585392004088
 20
-62.22364583771
 30
0.0
 10
214.8585390650462
 20
-62.63785939995729
 30
0.0
  0
SPLINE
  5
105
330
1F
100
AcDbEntity
  8
LAYER_1
 62
     1
100
AcDbSpline
210
0.0
220
0.0
230
1.0
 70
    11
 71
     3
 72
    17
 73
    13
 74
     0
 42
0.0000000001
 43
0.0000000001
 12
1.0
 22
0.0
 32
0.0
 13
1.0
 23
0.0
 33
0.0
 40
0.0
 40
0.0
 40
0.0
 40
0.0
 40
1.0
 40
1.0
 40
1.0
 40
2.0
 40
2.0
 40
2.0
 40
3.0
 40
3.0
 40
3.0
 40
4.0
 40
4.0
 40
4.0
 40
4.0
 10
214.8585361237751
 20
-71.63821768163326
 30
0.0
 10
214.8585359884119
 20
-72.05243124387862
 30
0.0
 10
214.5227494411132
 20
-72.38821757171105
 30
0.0
 10
214.1085358788624
 20
-72.38821743634817
 30
0.0
 10
213.6943223166193
 20
-72.38821730098527
 30
0.0
 10
213.3585359887869
 20
-72.05243075368632
 30
0.0
 10
213.3585361241494
 20
-71.63821719144065
 30
0.0
 10
213.3585362595126
 20
-71.22400362919272
 30
0.0
 10
213.6943228068119
 20
-70.8882173013603
 30
0.0
 10
214.1085363690544
 20
-70.88821743672318
 30
0.0
 10
214.5227499313058
 20
-70.88821757208639
 30
0.0
 10
214.8585362591376
 20
-71.22400411938501
 30
0.0
 10
214.8585361237751
 20
-71.63821768163326
 30
0.0
  0
SPLINE
  5
106
330
1F
100
AcDbEntity
  8
LAYER_1
 62
     1
100
AcDbSpline
210
0.0
220
0.0
230
1.0
 70
    11
 71
     3
 72
    17
 73
    13
 74
     0
 42
0.0000000001
 43
0.0000000001
 12
1.0
 22
0.0
 32
0.0
 13
1.0
 23
0.0
 33
0.0
 40
0.0
 40
0.0
 40
0.0
 40
0.0
 40
1.0
 40
1.0
 40
1.0
 40
2.0
 40
2.0
 40
2.0
 40
3.0
 40
3.0
 40
3.0
 40
4.0
 40
4.0
 40
4.0
 40
4.0
 10
212.6087337406724
 20
-142.6380377866955
 30
0.0
 10
212.6087331992209
 20
-144.2948920356808
 30
0.0
 10
211.2655870100212
 20
-145.6380373470105
 30
0.0
 10
209.6087327610353
 20
-145.638036805559
 30
0.0
 10
207.9518785120519
 20
-145.6380362641075
 30
0.0
 10
206.6087332007197
 20
-144.2948900749116
 30
0.0
 10
206.6087337421712
 20
-142.6380358259264
 30
0.0
 10
206.6087342836227
 20
-140.9811815769398
 30
0.0
 10
207.9518804728211
 20
-139.6380362656088
 30
0.0
 10
209.6087347218045
 20
-139.6380368070603
 30
0.0
 10
211.265588970791
 20
-139.6380373485119
 30
0.0
 10
212.6087342821239
 20
-140.981183537709
 30
0.0
 10
212.6087337406724
 20
-142.6380377866955
 30
0.0
  0
SPLINE
  5
107
330
1F
100
AcDbEntity
  8
LAYER_1
 62
     1
100
AcDbSpline
210
0.0
220
0.0
230
1.0
 70
    11
 71
     3
 72
    17
 73
    13
 74
     0
 42
0.0000000001
 43
0.0000000001
 12
1.0
 22
0.0
 32
0.0
 13
1.0
 23
0.0
 33
0.0
 40
0.0
 40
0.0
 40
0.0
 40
0.0
 40
1.0
 40
1.0
 40
1.0
 40
2.0
 40
2.0
 40
2.0
 40
3.0
 40
3.0
 40
3.0
 40
4.0
 40
4.0
 40
4.0
 40
4.0
 10
205.8589313586948
 20
-138.1378564400561
 30
0.0
 10
205.8589312233316
 20
-138.552070002303
 30
0.0
 10
205.523144676033
 20
-138.8878563301342
 30
0.0
 10
205.1089311137822
 20
-138.8878561947716
 30
0.0
 10
204.6947175515378
 20
-138.8878560594084
 30
0.0
 10
204.3589312237054
 20
-138.5520695121104
 30
0.0
 10
204.3589313590685
 20
-138.1378559498635
 30
0.0
 10
204.3589314944311
 20
-137.7236423876165
 30
0.0
 10
204.6947180417304
 20
-137.3878560597828
 30
0.0
 10
205.1089316039748
 20
-137.387856195146
 30
0.0
 10
205.5231451662256
 20
-137.3878563305092
 30
0.0
 10
205.8589314940574
 20
-137.7236428778091
 30
0.0
 10
205.8589313586948
 20
-138.1378564400561
 30
0.0
  0
SPLINE
  5
108
330
1F
100
AcDbEntity
  8
LAYER_1
 62
     1
100
AcDbSpline
210
0.0
220
0.0
230
1.0
 70
    11
 71
     3
 72
    17
 73
    13
 74
     0
 42
0.0000000001
 43
0.0000000001
 12
1.0
 22
0.0
 32
0.0
 13
1.0
 23
0.0
 33
0.0
 40
0.0
 40
0.0
 40
0.0
 40
0.0
 40
1.0
 40
1.0
 40
1.0
 40
2.0
 40
2.0
 40
2.0
 40
3.0
 40
3.0
 40
3.0
 40
4.0
 40
4.0
 40
4.0
 40
4.0
 10
205.8589284174236
 20
-147.1382147217317
 30
0.0
 10
205.8589282820604
 20
-147.5524282839774
 30
0.0
 10
205.5231417347624
 20
-147.8882146118098
 30
0.0
 10
205.108928172511
 20
-147.8882144764473
 30
0.0
 10
204.6947146102666
 20
-147.8882143410834
 30
0.0
 10
204.3589282824348
 20
-147.5524277937848
 30
0.0
 10
204.3589284177974
 20
-147.1382142315391
 30
0.0
 10
204.3589285531606
 20
-146.7240006692915
 30
0.0
 10
204.6947151004592
 20
-146.3882143414591
 30
0.0
 10
205.1089286627036
 20
-146.3882144768223
 30
0.0
 10
205.5231422249538
 20
-146.3882146121849
 30
0.0
 10
205.8589285527862
 20
-146.7240011594835
 30
0.0
 10
205.8589284174236
 20
-147.1382147217317
 30
0.0
  0
SPLINE
  5
109
330
1F
100
AcDbEntity
  8
LAYER_1
 62
     1
100
AcDbSpline
210
0.0
220
0.0
230
1.0
 70
    11
 71
     3
 72
    17
 73
    13
 74
     0
 42
0.0000000001
 43
0.0000000001
 12
1.0
 22
0.0
 32
0.0
 13
1.0
 23
0.0
 33
0.0
 40
0.0
 40
0.0
 40
0.0
 40
0.0
 40
1.0
 40
1.0
 40
1.0
 40
2.0
 40
2.0
 40
2.0
 40
3.0
 40
3.0
 40
3.0
 40
4.0
 40
4.0
 40
4.0
 40
4.0
 10
214.8585390650462
 20
-138.1378593810815
 30
0.0
 10
214.858538929683
 20
-138.5520729433285
 30
0.0
 10
214.5227523823844
 20
-138.8878592711609
 30
0.0
 10
214.1085388201336
 20
-138.887859135797
 30
0.0
 10
213.6943252578905
 20
-138.8878590004345
 30
0.0
 10
213.358538930058
 20
-138.5520724531371
 30
0.0
 10
213.3585390654213
 20
-138.1378588908902
 30
0.0
 10
213.3585392007838
 20
-137.7236453286426
 30
0.0
 10
213.6943257480825
 20
-137.3878590008095
 30
0.0
 10
214.1085393103256
 20
-137.387859136172
 30
0.0
 10
214.522752872577
 20
-137.3878592715346
 30
0.0
 10
214.8585392004088
 20
-137.7236458188345
 30
0.0
 10
214.8585390650462
 20
-138.1378593810815
 30
0.0
  0
SPLINE
  5
10A
330
1F
100
AcDbEntity
  8
LAYER_1
 62
     1
100
AcDbSpline
210
0.0
220
0.0
230
1.0
 70
    11
 71
     3
 72
    17
 73
    13
 74
     0
 42
0.0000000001
 43
0.0000000001
 12
1.0
 22
0.0
 32
0.0
 13
1.0
 23
0.0
 33
0.0
 40
0.0
 40
0.0
 40
0.0
 40
0.0
 40
1.0
 40
1.0
 40
1.0
 40
2.0
 40
2.0
 40
2.0
 40
3.0
 40
3.0
 40
3.0
 40
4.0
 40
4.0
 40
4.0
 40
4.0
 10
214.8585361237751
 20
-147.1382176627578
 30
0.0
 10
214.8585359884119
 20
-147.5524312250035
 30
0.0
 10
214.5227494411132
 20
-147.8882175528359
 30
0.0
 10
214.1085358788624
 20
-147.8882174174727
 30
0.0
 10
213.6943223166193
 20
-147.8882172821095
 30
0.0
 10
213.3585359887869
 20
-147.5524307348109
 30
0.0
 10
213.3585361241494
 20
-147.1382171725652
 30
0.0
 10
213.3585362595126
 20
-146.7240036103169
 30
0.0
 10
213.6943228068119
 20
-146.3882172824845
 30
0.0
 10
214.1085363690544
 20
-146.3882174178477
 30
0.0
 10
214.5227499313058
 20
-146.3882175532109
 30
0.0
 10
214.8585362591376
 20
-146.7240041005095
 30
0.0
 10
214.8585361237751
 20
-147.1382176627578
 30
0.0
  0
SPLINE
  5
10B
330
1F
100
AcDbEntity
  8
LAYER_1
 62
     1
100
AcDbSpline
210
0.0
220
0.0
230
1.0
 70
    11
 71
     3
 72
    17
 73
    13
 74
     0
 42
0.0000000001
 43
0.0000000001
 12
1.0
 22
0.0
 32
0.0
 13
1.0
 23
0.0
 33
0.0
 40
0.0
 40
0.0
 40
0.0
 40
0.0
 40
1.0
 40
1.0
 40
1.0
 40
2.0
 40
2.0
 40
2.0
 40
3.0
 40
3.0
 40
3.0
 40
4.0
 40
4.0
 40
4.0
 40
4.0
 10
203.7751149949462
 20
-66.60743946458041
 30
0.0
 10
204.0680081179545
 20
-66.90033277902069
 30
0.0
 10
204.0680079627672
 20
-67.3752065130865
 30
0.0
 10
203.7751146483247
 20
-67.66809963609704
 30
0.0
 10
203.4822213338861
 20
-67.96099275910375
 30
0.0
 10
203.0073475998205
 20
-67.96099260391782
 30
0.0
 10
202.7144544768123
 20
-67.66809928947721
 30
0.0
 10
202.421561353804
 20
-67.37520597503693
 30
0.0
 10
202.4215615089892
 20
-66.90033224097016
 30
0.0
 10
202.7144548234286
 20
-66.60743911796347
 30
0.0
 10
203.0073481378711
 20
-66.31454599495291
 30
0.0
 10
203.4822218719379
 20
-66.31454615014012
 30
0.0
 10
203.7751149949462
 20
-66.60743946458041
 30
0.0
  0
SPLINE
  5
10C
330
1F
100
AcDbEntity
  8
LAYER_1
 62
     1
100
AcDbSpline
210
0.0
220
0.0
230
1.0
 70
    11
 71
     3
 72
    17
 73
    13
 74
     0
 42
0.0000000001
 43
0.0000000001
 12
1.0
 22
0.0
 32
0.0
 13
1.0
 23
0.0
 33
0.0
 40
0.0
 40
0.0
 40
0.0
 40
0.0
 40
1.0
 40
1.0
 40
1.0
 40
2.0
 40
2.0
 40
2.0
 40
3.0
 40
3.0
 40
3.0
 40
4.0
 40
4.0
 40
4.0
 40
4.0
 10
210.139327289235
 20
-72.97165591845452
 30
0.0
 10
210.432220412242
 20
-73.26454923289415
 30
0.0
 10
210.4322202570567
 20
-73.73942296695964
 30
0.0
 10
210.1393269426129
 20
-74.03231608997116
 30
0.0
 10
209.8464336281743
 20
-74.32520921297721
 30
0.0
 10
209.3715598941088
 20
-74.32520905779064
 30
0.0
 10
209.0786667711011
 20
-74.03231574335165
 30
0.0
 10
208.7857736480922
 20
-73.7394224289104
 30
0.0
 10
208.7857738032787
 20
-73.26454869484459
 30
0.0
 10
209.0786671177168
 20
-72.97165557183789
 30
0.0
 10
209.3715604321593
 20
-72.67876244882734
 30
0.0
 10
209.8464341662254
 20
-72.67876260401358
 30
0.0
 10
210.139327289235
 20
-72.97165591845452
 30
0.0
  0
SPLINE
  5
10D
330
1F
100
AcDbEntity
  8
LAYER_1
 62
     1
100
AcDbSpline
210
0.0
220
0.0
230
1.0
 70
    11
 71
     3
 72
    17
 73
    13
 74
     0
 42
0.0000000001
 43
0.0000000001
 12
1.0
 22
0.0
 32
0.0
 13
1.0
 23
0.0
 33
0.0
 40
0.0
 40
0.0
 40
0.0
 40
0.0
 40
1.0
 40
1.0
 40
1.0
 40
2.0
 40
2.0
 40
2.0
 40
3.0
 40
3.0
 40
3.0
 40
4.0
 40
4.0
 40
4.0
 40
4.0
 10
210.1388007117457
 20
-60.24375790701959
 30
0.0
 10
210.4316938347534
 20
-60.5366512214602
 30
0.0
 10
210.4316936795668
 20
-61.01152495552601
 30
0.0
 10
210.1388003651236
 20
-61.30441807853656
 30
0.0
 10
209.8459070506862
 20
-61.5973112015423
 30
0.0
 10
209.3710333166208
 20
-61.59731104635669
 30
0.0
 10
209.0781401936131
 20
-61.3044177319164
 30
0.0
 10
208.7852470706041
 20
-61.01152441747612
 30
0.0
 10
208.7852472257894
 20
-60.53665068340935
 30
0.0
 10
209.0781405402268
 20
-60.24375756040362
 30
0.0
 10
209.37103385467
 20
-59.95086443739242
 30
0.0
 10
209.8459075887368
 20
-59.95086459257931
 30
0.0
 10
210.1388007117457
 20
-60.24375790701959
 30
0.0
  0
SPLINE
  5
10E
330
1F
100
AcDbEntity
  8
LAYER_1
 62
     1
100
AcDbSpline
210
0.0
220
0.0
230
1.0
 70
    11
 71
     3
 72
    17
 73
    13
 74
     0
 42
0.0000000001
 43
0.0000000001
 12
1.0
 22
0.0
 32
0.0
 13
1.0
 23
0.0
 33
0.0
 40
0.0
 40
0.0
 40
0.0
 40
0.0
 40
1.0
 40
1.0
 40
1.0
 40
2.0
 40
2.0
 40
2.0
 40
3.0
 40
3.0
 40
3.0
 40
4.0
 40
4.0
 40
4.0
 40
4.0
 10
216.5030130060346
 20
-66.60797436089403
 30
0.0
 10
216.7959061290409
 20
-66.90086767533334
 30
0.0
 10
216.795905973855
 20
-67.37574140939948
 30
0.0
 10
216.5030126594125
 20
-67.66863453241066
 30
0.0
 10
216.2101193449745
 20
-67.96152765541609
 30
0.0
 10
215.7352456109083
 20
-67.96152750022983
 30
0.0
 10
215.4423524879006
 20
-67.66863418579084
 30
0.0
 10
215.1494593648917
 20
-67.37574087134927
 30
0.0
 10
215.1494595200783
 20
-66.90086713728282
 30
0.0
 10
215.4423528345157
 20
-66.60797401427773
 30
0.0
 10
215.7352461489595
 20
-66.31508089126653
 30
0.0
 10
216.210119883025
 20
-66.3150810464531
 30
0.0
 10
216.5030130060346
 20
-66.60797436089403
 30
0.0
  0
SPLINE
  5
10F
330
1F
100
AcDbEntity
  8
LAYER_1
 62
     1
100
AcDbSpline
210
0.0
220
0.0
230
1.0
 70
    11
 71
     3
 72
    17
 73
    13
 74
     0
 42
0.0000000001
 43
0.0000000001
 12
1.0
 22
0.0
 32
0.0
 13
1.0
 23
0.0
 33
0.0
 40
0.0
 40
0.0
 40
0.0
 40
0.0
 40
1.0
 40
1.0
 40
1.0
 40
2.0
 40
2.0
 40
2.0
 40
3.0
 40
3.0
 40
3.0
 40
4.0
 40
4.0
 40
4.0
 40
4.0
 10
203.7751149949455
 20
-142.1074394457056
 30
0.0
 10
204.0680081179538
 20
-142.4003327601462
 30
0.0
 10
204.0680079627666
 20
-142.875206494211
 30
0.0
 10
203.7751146483241
 20
-143.1680996172219
 30
0.0
 10
203.4822213338854
 20
-143.4609927402289
 30
0.0
 10
203.0073475998199
 20
-143.460992585043
 30
0.0
 10
202.7144544768116
 20
-143.1680992706024
 30
0.0
 10
202.4215613538033
 20
-142.8752059561624
 30
0.0
 10
202.4215615089886
 20
-142.400332222095
 30
0.0
 10
202.7144548234273
 20
-142.1074390990886
 30
0.0
 10
203.0073481378711
 20
-141.8145459760784
 30
0.0
 10
203.4822218719372
 20
-141.8145461312656
 30
0.0
 10
203.7751149949455
 20
-142.1074394457056
 30
0.0
  0
SPLINE
  5
110
330
1F
100
AcDbEntity
  8
LAYER_1
 62
     1
100
AcDbSpline
210
0.0
220
0.0
230
1.0
 70
    11
 71
     3
 72
    17
 73
    13
 74
     0
 42
0.0000000001
 43
0.0000000001
 12
1.0
 22
0.0
 32
0.0
 13
1.0
 23
0.0
 33
0.0
 40
0.0
 40
0.0
 40
0.0
 40
0.0
 40
1.0
 40
1.0
 40
1.0
 40
2.0
 40
2.0
 40
2.0
 40
3.0
 40
3.0
 40
3.0
 40
4.0
 40
4.0
 40
4.0
 40
4.0
 10
210.1393272892344
 20
-148.4716558995794
 30
0.0
 10
210.4322204122414
 20
-148.7645492140193
 30
0.0
 10
210.4322202570561
 20
-149.2394229480848
 30
0.0
 10
210.1393269426123
 20
-149.5323160710963
 30
0.0
 10
209.8464336281736
 20
-149.8252091941027
 30
0.0
 10
209.3715598941081
 20
-149.8252090389155
 30
0.0
 10
209.0786667711005
 20
-149.5323157244768
 30
0.0
 10
208.7857736480915
 20
-149.2394224100356
 30
0.0
 10
208.7857738032781
 20
-148.7645486759701
 30
0.0
 10
209.0786671177161
 20
-148.4716555529631
 30
0.0
 10
209.3715604321586
 20
-148.1787624299522
 30
0.0
 10
209.8464341662248
 20
-148.1787625851387
 30
0.0
 10
210.1393272892344
 20
-148.4716558995794
 30
0.0
  0
SPLINE
  5
111
330
1F
100
AcDbEntity
  8
LAYER_1
 62
     1
100
AcDbSpline
210
0.0
220
0.0
230
1.0
 70
    11
 71
     3
 72
    17
 73
    13
 74
     0
 42
0.0000000001
 43
0.0000000001
 12
1.0
 22
0.0
 32
0.0
 13
1.0
 23
0.0
 33
0.0
 40
0.0
 40
0.0
 40
0.0
 40
0.0
 40
1.0
 40
1.0
 40
1.0
 40
2.0
 40
2.0
 40
2.0
 40
3.0
 40
3.0
 40
3.0
 40
4.0
 40
4.0
 40
4.0
 40
4.0
 10
210.1388007117451
 20
-135.7437578881451
 30
0.0
 10
210.4316938347527
 20
-136.0366512025857
 30
0.0
 10
210.4316936795662
 20
-136.5115249366512
 30
0.0
 10
210.138800365123
 20
-136.8044180596621
 30
0.0
 10
209.8459070506856
 20
-137.0973111826678
 30
0.0
 10
209.3710333166201
 20
-137.0973110274819
 30
0.0
 10
209.0781401936125
 20
-136.8044177130419
 30
0.0
 10
208.7852470706035
 20
-136.5115243986013
 30
0.0
 10
208.7852472257888
 20
-136.0366506645345
 30
0.0
 10
209.0781405402262
 20
-135.7437575415288
 30
0.0
 10
209.3710338546693
 20
-135.4508644185173
 30
0.0
 10
209.8459075887361
 20
-135.4508645737045
 30
0.0
 10
210.1388007117451
 20
-135.7437578881451
 30
0.0
  0
SPLINE
  5
112
330
1F
100
AcDbEntity
  8
LAYER_1
 62
     1
100
AcDbSpline
210
0.0
220
0.0
230
1.0
 70
    11
 71
     3
 72
    17
 73
    13
 74
     0
 42
0.0000000001
 43
0.0000000001
 12
1.0
 22
0.0
 32
0.0
 13
1.0
 23
0.0
 33
0.0
 40
0.0
 40
0.0
 40
0.0
 40
0.0
 40
1.0
 40
1.0
 40
1.0
 40
2.0
 40
2.0
 40
2.0
 40
3.0
 40
3.0
 40
3.0
 40
4.0
 40
4.0
 40
4.0
 40
4.0
 10
216.5030130060339
 20
-142.1079743420195
 30
0.0
 10
216.7959061290403
 20
-142.4008676564588
 30
0.0
 10
216.7959059738544
 20
-142.8757413905243
 30
0.0
 10
216.5030126594118
 20
-143.1686345135358
 30
0.0
 10
216.2101193449738
 20
-143.4615276365409
 30
0.0
 10
215.7352456109077
 20
-143.461527481355
 30
0.0
 10
215.4423524879
 20
-143.1686341669163
 30
0.0
 10
215.1494593648911
 20
-142.8757408524744
 30
0.0
 10
215.1494595200776
 20
-142.4008671184083
 30
0.0
 10
215.442352834515
 20
-142.1079739954032
 30
0.0
 10
215.7352461489589
 20
-141.8150808723917
 30
0.0
 10
216.2101198830243
 20
-141.8150810275783
 30
0.0
 10
216.5030130060339
 20
-142.1079743420195
 30
0.0
  0
ENDSEC
  0
SECTION
  2
OBJECTS
  0
DICTIONARY
  5
C
330
0
100
AcDbDictionary
  3
ACAD_GROUP
350
D
  3
ACAD_LAYOUT
350
1A
  3
ACAD_MATERIAL
350
3B
  3
ACAD_MLEADERSTYLE
350
135
  3
ACAD_MLINESTYLE
350
17
  3
ACAD_PLOTSETTINGS
350
19
  3
ACAD_VISUALSTYLE
350
2A
  3
ACDBHEADERROUNDTRIPXREC
350
113
  3
ACDBVARIABLEDICTIONARY
350
133
  0
DICTIONARY
  5
D
102
{ACAD_REACTORS
330
C
102
}
330
C
100
AcDbDictionary
  0
DICTIONARY
  5
1A
102
{ACAD_REACTORS
330
C
102
}
330
C
100
AcDbDictionary
  0
DICTIONARY
  5
3B
102
{ACAD_REACTORS
330
C
102
}
330
C
100
AcDbDictionary
  3
BYBLOCK
350
3D
  3
BYLAYER
350
3C
  3
GLOBAL
350
3E
  0
DICTIONARY
  5
135
102
{ACAD_REACTORS
330
C
102
}
330
C
100
AcDbDictionary
  0
DICTIONARY
  5
17
102
{ACAD_REACTORS
330
C
102
}
330
C
100
AcDbDictionary
  3
STANDARD
350
18
  0
DICTIONARY
  5
19
102
{ACAD_REACTORS
330
C
102
}
330
C
100
AcDbDictionary
  0
DICTIONARY
  5
2A
102
{ACAD_REACTORS
330
C
102
}
330
C
100
AcDbDictionary
  3
2DWIREFRAME
350
2F
  3
3D_HIDDEN
350
31
  3
3DWIREFRAME
350
30
  3
BASIC
350
32
  3
BRIGHTEN
350
36
  3
COLORCHANGE
350
3A
  3
CONCEPTUAL
350
34
  3
DIM
350
35
  3
FACEPATTERN
350
39
  3
FLAT
350
2B
  3
FLATWITHEDGES
350
2C
  3
GOURAUD
350
2D
  3
GOURAUDWITHEDGES
350
2E
  3
LINEPATTERN
350
38
  3
REALISTIC
350
33
  3
THICKEN
350
37
  0
DICTIONARY
  5
113
102
{ACAD_REACTORS
330
C
102
}
330
C
100
AcDbDictionary
  3
CEPSNTYPE
350
11C
  3
DIMSTYLEDATA
350
132
  3
FINGERPRINTGUID
350
11D
  3
HYPERLINKBASE
350
116
  3
INSUNITS
350
11B
  3
LAYOUTDICT
350
118
  3
LWETCUNION
350
11A
  3
PLOTSETDICT
350
119
  3
PSVPSCALE
350
11F
  3
PUCSBASE
350
122
  3
PUCSORGBACK
350
128
  3
PUCSORGBOTTOM
350
124
  3
PUCSORGFRONT
350
127
  3
PUCSORGLEFT
350
125
  3
PUCSORGRIGHT
350
126
  3
PUCSORGTOP
350
123
  3
PUCSORTHOREF
350
120
  3
PUCSORTHOVIEW
350
121
  3
STYLESHEET
350
117
  3
TSTACKALIGN
350
114
  3
TSTACKSIZE
350
115
  3
UCSBASE
350
12B
  3
UCSORGBACK
350
131
  3
UCSORGBOTTOM
350
12D
  3
UCSORGFRONT
350
130
  3
UCSORGLEFT
350
12E
  3
UCSORGRIGHT
350
12F
  3
UCSORGTOP
350
12C
  3
UCSORTHOREF
350
129
  3
UCSORTHOVIEW
350
12A
  3
VERSIONGUID
350
11E
  0
DICTIONARY
  5
133
102
{ACAD_REACTORS
330
C
102
}
330
C
100
AcDbDictionary
  3
DIMASSOC
350
136
  3
HIDETEXT
350
137
  0
MATERIAL
  5
3D
102
{ACAD_REACTORS
330
3B
102
}
102
{ACAD_XDICTIONARY
360
13A
102
}
330
3B
100
AcDbMaterial
  1
ByBlock
  0
MATERIAL
  5
3C
102
{ACAD_REACTORS
330
3B
102
}
102
{ACAD_XDICTIONARY
360
138
102
}
330
3B
100
AcDbMaterial
  1
ByLayer
  0
MATERIAL
  5
3E
102
{ACAD_REACTORS
330
3B
102
}
102
{ACAD_XDICTIONARY
360
13C
102
}
330
3B
100
AcDbMaterial
  1
Global
  0
MLINESTYLE
  5
18
102
{ACAD_REACTORS
330
17
102
}
330
17
100
AcDbMlineStyle
  2
Standard
 70
     0
  3

 62
   256
 51
90.0
 52
90.0
 71
     2
 49
0.5
 62
   256
  6
BYLAYER
 49
-0.5
 62
   256
  6
BYLAYER
  0
ACAD_PROXY_OBJECT
  5
2F
102
{ACAD_REACTORS
330
2A
102
}
330
2A
100
AcDbProxyObject
 90
      499
 91
      501
 93
      436
310
42CC9915DA5C99599C985B595049028333333333333E3BF0000000000000FB0107901411070040501600405405064090741402480A0340
1001
ACAD
1000
AcDbSavedByObjectVersion
1070
     0
  0
ACAD_PROXY_OBJECT
  5
31
102
{ACAD_REACTORS
330
2A
102
}
330
2A
100
AcDbProxyObject
 90
      499
 91
      501
 93
      500
310
424CD108121A5919195B90640502408333333333333E3BF0000000000000FB01079024090700405020000000000001110200405405064090740C02480A0340
1001
ACAD
1000
AcDbSavedByObjectVersion
1070
     0
  0
ACAD_PROXY_OBJECT
  5
30
102
{ACAD_REACTORS
330
2A
102
}
330
2A
100
AcDbProxyObject
 90
      499
 91
      501
 93
      436
310
42CCD915DA5C99599C985B595059028333333333333E3BF0000000000000FB0107901411070040501600405405064090741402480A0340
1001
ACAD
1000
AcDbSavedByObjectVersion
1070
     0
  0
ACAD_PROXY_OBJECT
  5
32
102
{ACAD_REACTORS
330
2A
102
}
330
2A
100
AcDbProxyObject
 90
      499
 91
      501
 93
      388
310
4150985CDA58D07406404333333333333E3BF0000000000000FB0107A41107004050150841D405064090741402480A0350
1001
ACAD
1000
AcDbSavedByObjectVersion
1070
     0
  0
ACAD_PROXY_OBJECT
  5
36
102
{ACAD_REACTORS
330
2A
102
}
330
2A
100
AcDbProxyObject
 90
      499
 91
      501
 93
      428
310
42109C9A59DA1D195B90C409028333333333333E3BF0000000000000FB010790141107004050150841D405064090741402480A029950
1001
ACAD
1000
AcDbSavedByObjectVersion
1070
     0
  0
ACAD_PROXY_OBJECT
  5
3A
102
{ACAD_REACTORS
330
2A
102
}
330
2A
100
AcDbProxyObject
 90
      499
 91
      501
 93
      452
310
42D0DBDB1BDC90DA185B99D95104090240C333333333333E3BF0000000000000FB0108901411070040501508421405064090741402480A0350
1001
ACAD
1000
AcDbSavedByObjectVersion
1070
     0
  0
ACAD_PROXY_OBJECT
  5
34
102
{ACAD_REACTORS
330
2A
102
}
330
2A
100
AcDbProxyObject
 90
      499
 91
      501
 93
      500
310
4290DBDB98D95C1D1D585B10940D028333333333333E3BF0000000000000FB0107902409070040501000000000000111010841D405064090740C02480A0340
1001
ACAD
1000
AcDbSavedByObjectVersion
1070
     0
  0
ACAD_PROXY_OBJECT
  5
35
102
{ACAD_REACTORS
330
2A
102
}
330
2A
100
AcDbProxyObject
 90
      499
 91
      501
 93
      412
310
40D11A5B50B409028333333333333E3BF0000000000000FB010790141107004050150841D405064090741402480A02677FFFFFD0
1001
ACAD
1000
AcDbSavedByObjectVersion
1070
     0
  0
ACAD_PROXY_OBJECT
  5
39
102
{ACAD_REACTORS
330
2A
102
}
330
2A
100
AcDbProxyObject
 90
      499
 91
      501
 93
      444
310
42D19858D95C185D1D195C9B90F409028333333333333E3BF0000000000000FB010790141107004050150841D405064090741402480A0350
1001
ACAD
1000
AcDbSavedByObjectVersion
1070
     0
  0
ACAD_PROXY_OBJECT
  5
2B
102
{ACAD_REACTORS
330
2A
102
}
330
2A
100
AcDbProxyObject
 90
      499
 91
      501
 93
      388
310
41119B185D240901404333333333333E3BF0000000000000F9010740A41107004050150841D405064090741402480A1B50
1001
ACAD
1000
AcDbSavedByObjectVersion
1070
     0
  0
ACAD_PROXY_OBJECT
  5
2C
102
{ACAD_REACTORS
330
2A
102
}
330
2A
100
AcDbProxyObject
 90
      499
 91
      501
 93
      476
310
43519B185D15DA5D1A115919D95CD0140901404333333333333E3BF0000000000000F9010740901411070040501600405405064090741402480A1B50
1001
ACAD
1000
AcDbSavedByObjectVersion
1070
     0
  0
ACAD_PROXY_OBJECT
  5
2D
102
{ACAD_REACTORS
330
2A
102
}
330
2A
100
AcDbProxyObject
 90
      499
 91
      501
 93
      412
310
41D1DBDD5C985D5910240902404333333333333E3BF0000000000000F9010740A411070040501641D405064090741402480A1B50
1001
ACAD
1000
AcDbSavedByObjectVersion
1070
     0
  0
ACAD_PROXY_OBJECT
  5
2E
102
{ACAD_REACTORS
330
2A
102
}
330
2A
100
AcDbProxyObject
 90
      499
 91
      501
 93
      500
310
4411DBDD5C985D5915DA5D1A115919D95CD0340902404333333333333E3BF0000000000000F9010740901411070040501600405405064090741402480A1B50
1001
ACAD
1000
AcDbSavedByObjectVersion
1070
     0
  0
ACAD_PROXY_OBJECT
  5
38
102
{ACAD_REACTORS
330
2A
102
}
330
2A
100
AcDbProxyObject
 90
      499
 91
      501
 93
      444
310
42D31A5B995C185D1D195C9B90E409028333333333333E3BF0000000000000FB010790141107004050750841D405064090741402483A0350
1001
ACAD
1000
AcDbSavedByObjectVersion
1070
     0
  0
ACAD_PROXY_OBJECT
  5
33
102
{ACAD_REACTORS
330
2A
102
}
330
2A
100
AcDbProxyObject
 90
      499
 91
      501
 93
      420
310
425499585B1A5CDD1A58D08409028333333333333E3BF0000000000000FB01079019070040501508421405064090741402480A1B40
1001
ACAD
1000
AcDbSavedByObjectVersion
1070
     0
  0
ACAD_PROXY_OBJECT
  5
37
102
{ACAD_REACTORS
330
2A
102
}
330
2A
100
AcDbProxyObject
 90
      499
 91
      501
 93
      412
310
41D51A1A58DAD95B90D409028333333333333E3BF0000000000000FB010790141107004050150C41D405064090741402480A0350
1001
ACAD
1000
AcDbSavedByObjectVersion
1070
     0
  0
XRECORD
  5
11C
102
{ACAD_REACTORS
330
113
102
}
330
113
100
AcDbXrecord
 90
        0
  0
XRECORD
  5
132
102
{ACAD_REACTORS
330
113
102
}
330
113
100
AcDbXrecord
1000
DSTYLE
1002
{
1070
   340
340
11
1002
}
  0
XRECORD
  5
11D
102
{ACAD_REACTORS
330
113
102
}
330
113
100
AcDbXrecord
  1
{16F500C1-D37A-44D6-80E9-C89B22B20191}
  0
XRECORD
  5
116
102
{ACAD_REACTORS
330
113
102
}
330
113
100
AcDbXrecord
  1

  0
XRECORD
  5
11B
102
{ACAD_REACTORS
330
113
102
}
330
113
100
AcDbXrecord
 90
        4
  0
XRECORD
  5
118
102
{ACAD_REACTORS
330
113
102
}
330
113
100
AcDbXrecord
340
1A
  0
XRECORD
  5
11A
102
{ACAD_REACTORS
330
113
102
}
330
113
100
AcDbXrecord
 90
    10269
  0
XRECORD
  5
119
102
{ACAD_REACTORS
330
113
102
}
330
113
100
AcDbXrecord
340
19
  0
XRECORD
  5
11F
102
{ACAD_REACTORS
330
113
102
}
330
113
100
AcDbXrecord
 40
0.0
  0
XRECORD
  5
122
102
{ACAD_REACTORS
330
113
102
}
330
113
100
AcDbXrecord
340
0
  0
XRECORD
  5
128
102
{ACAD_REACTORS
330
113
102
}
330
113
100
AcDbXrecord
 10
0.0
 20
0.0
 30
0.0
  0
XRECORD
  5
124
102
{ACAD_REACTORS
330
113
102
}
330
113
100
AcDbXrecord
 10
0.0
 20
0.0
 30
0.0
  0
XRECORD
  5
127
102
{ACAD_REACTORS
330
113
102
}
330
113
100
AcDbXrecord
 10
0.0
 20
0.0
 30
0.0
  0
XRECORD
  5
125
102
{ACAD_REACTORS
330
113
102
}
330
113
100
AcDbXrecord
 10
0.0
 20
0.0
 30
0.0
  0
XRECORD
  5
126
102
{ACAD_REACTORS
330
113
102
}
330
113
100
AcDbXrecord
 10
0.0
 20
0.0
 30
0.0
  0
XRECORD
  5
123
102
{ACAD_REACTORS
330
113
102
}
330
113
100
AcDbXrecord
 10
0.0
 20
0.0
 30
0.0
  0
XRECORD
  5
120
102
{ACAD_REACTORS
330
113
102
}
330
113
100
AcDbXrecord
340
0
  0
XRECORD
  5
121
102
{ACAD_REACTORS
330
113
102
}
330
113
100
AcDbXrecord
 70
     0
  0
XRECORD
  5
117
102
{ACAD_REACTORS
330
113
102
}
330
113
100
AcDbXrecord
  1

  0
XRECORD
  5
114
102
{ACAD_REACTORS
330
113
102
}
330
113
100
AcDbXrecord
 90
        1
  0
XRECORD
  5
115
102
{ACAD_REACTORS
330
113
102
}
330
113
100
AcDbXrecord
 90
       70
  0
XRECORD
  5
12B
102
{ACAD_REACTORS
330
113
102
}
330
113
100
AcDbXrecord
340
0
  0
XRECORD
  5
131
102
{ACAD_REACTORS
330
113
102
}
330
113
100
AcDbXrecord
 10
0.0
 20
0.0
 30
0.0
  0
XRECORD
  5
12D
102
{ACAD_REACTORS
330
113
102
}
330
113
100
AcDbXrecord
 10
0.0
 20
0.0
 30
0.0
  0
XRECORD
  5
130
102
{ACAD_REACTORS
330
113
102
}
330
113
100
AcDbXrecord
 10
0.0
 20
0.0
 30
0.0
  0
XRECORD
  5
12E
102
{ACAD_REACTORS
330
113
102
}
330
113
100
AcDbXrecord
 10
0.0
 20
0.0
 30
0.0
  0
XRECORD
  5
12F
102
{ACAD_REACTORS
330
113
102
}
330
113
100
AcDbXrecord
 10
0.0
 20
0.0
 30
0.0
  0
XRECORD
  5
12C
102
{ACAD_REACTORS
330
113
102
}
330
113
100
AcDbXrecord
 10
0.0
 20
0.0
 30
0.0
  0
XRECORD
  5
129
102
{ACAD_REACTORS
330
113
102
}
330
113
100
AcDbXrecord
340
0
  0
XRECORD
  5
12A
102
{ACAD_REACTORS
330
113
102
}
330
113
100
AcDbXrecord
 70
     0
  0
XRECORD
  5
11E
102
{ACAD_REACTORS
330
113
102
}
330
113
100
AcDbXrecord
  1
{FAEB1C32-E019-11D5-929B-00C0DF256EC4}
  0
DICTIONARYVAR
  5
136
102
{ACAD_REACTORS
330
133
102
}
330
133
100
DictionaryVariables
280
     0
  1
2
  0
DICTIONARYVAR
  5
137
102
{ACAD_REACTORS
330
133
102
}
330
133
100
DictionaryVariables
280
     0
  1
1
  0
DICTIONARY
  5
13A
330
3D
100
AcDbDictionary
280
     1
  3
ACAD_XREC_ROUNDTRIP
360
13B
  0
DICTIONARY
  5
138
330
3C
100
AcDbDictionary
280
     1
  3
ACAD_XREC_ROUNDTRIP
360
139
  0
DICTIONARY
  5
13C
330
3E
100
AcDbDictionary
280
     1
  3
ACAD_XREC_ROUNDTRIP
360
13D
  0
XRECORD
  5
13B
102
{ACAD_REACTORS
330
13A
102
}
330
13A
100
AcDbXrecord
102
MATERIAL
148
0.0
149
0.0
149
0.0
 93
        0
 94
      127
282
     0
 72
     1
 77
     1
171
     1
175
     1
179
     1
273
     0
  0
XRECORD
  5
139
102
{ACAD_REACTORS
330
138
102
}
330
138
100
AcDbXrecord
102
MATERIAL
148
0.0
149
0.0
149
0.0
 93
        0
 94
      127
282
     0
 72
     1
 77
     1
171
     1
175
     1
179
     1
273
     0
  0
XRECORD
  5
13D
102
{ACAD_REACTORS
330
13C
102
}
330
13C
100
AcDbXrecord
102
MATERIAL
148
0.0
149
0.0
149
0.0
 93
        0
 94
      127
282
     0
 72
     1
 77
     1
171
     1
175
     1
179
     1
273
     0
  0
ENDSEC
  0
EOF
