  0
SECTION
  2
HEADER
  9
$ACADVER
  1
AC1014
  9
$ACADMAINTVER
 70
     9
  9
$DWGCODEPAGE
  3
ANSI_1252
  9
$INSBASE
 10
0.0
 20
0.0
 30
0.0
  9
$EXTMIN
 10
1.000000000000000E+20
 20
1.000000000000000E+20
 30
1.000000000000000E+20
  9
$EXTMAX
 10
-1.000000000000000E+20
 20
-1.000000000000000E+20
 30
-1.000000000000000E+20
  9
$LIMMIN
 10
0.0
 20
0.0
  9
$LIMMAX
 10
12.0
 20
9.0
  9
$ORTHOMODE
 70
     0
  9
$REGENMODE
 70
     1
  9
$FILLMODE
 70
     1
  9
$QTEXTMODE
 70
     0
  9
$MIRRTEXT
 70
     1
  9
$DRAGMODE
 70
     2
  9
$LTSCALE
 40
1.0
  9
$OSMODE
 70
    37
  9
$ATTMODE
 70
     1
  9
$TEXTSIZE
 40
0.2
  9
$TRACEWID
 40
0.05
  9
$TEXTSTYLE
  7
STANDARD
  9
$CLAYER
  8
0
  9
$CELTYPE
  6
BYLAYER
  9
$CECOLOR
 62
   256
  9
$CELTSCALE
 40
1.0
  9
$DELOBJ
 70
     1
  9
$DISPSILH
 70
     0
  9
$DIMSCALE
 40
1.0
  9
$DIMASZ
 40
0.18
  9
$DIMEXO
 40
0.0625
  9
$DIMDLI
 40
0.38
  9
$DIMRND
 40
0.0
  9
$DIMDLE
 40
0.0
  9
$DIMEXE
 40
0.18
  9
$DIMTP
 40
0.0
  9
$DIMTM
 40
0.0
  9
$DIMTXT
 40
0.18
  9
$DIMCEN
 40
0.09
  9
$DIMTSZ
 40
0.0
  9
$DIMTOL
 70
     0
  9
$DIMLIM
 70
     0
  9
$DIMTIH
 70
     1
  9
$DIMTOH
 70
     1
  9
$DIMSE1
 70
     0
  9
$DIMSE2
 70
     0
  9
$DIMTAD
 70
     0
  9
$DIMZIN
 70
     0
  9
$DIMBLK
  1

  9
$DIMASO
 70
     1
  9
$DIMSHO
 70
     1
  9
$DIMPOST
  1

  9
$DIMAPOST
  1

  9
$DIMALT
 70
     0
  9
$DIMALTD
 70
     2
  9
$DIMALTF
 40
25.4
  9
$DIMLFAC
 40
1.0
  9
$DIMTOFL
 70
     0
  9
$DIMTVP
 40
0.0
  9
$DIMTIX
 70
     0
  9
$DIMSOXD
 70
     0
  9
$DIMSAH
 70
     0
  9
$DIMBLK1
  1

  9
$DIMBLK2
  1

  9
$DIMSTYLE
  2
STANDARD
  9
$DIMCLRD
 70
     0
  9
$DIMCLRE
 70
     0
  9
$DIMCLRT
 70
     0
  9
$DIMTFAC
 40
1.0
  9
$DIMGAP
 40
0.09
  9
$DIMJUST
 70
     0
  9
$DIMSD1
 70
     0
  9
$DIMSD2
 70
     0
  9
$DIMTOLJ
 70
     1
  9
$DIMTZIN
 70
     0
  9
$DIMALTZ
 70
     0
  9
$DIMALTTZ
 70
     0
  9
$DIMFIT
 70
     3
  9
$DIMUPT
 70
     0
  9
$DIMUNIT
 70
     2
  9
$DIMDEC
 70
     4
  9
$DIMTDEC
 70
     4
  9
$DIMALTU
 70
     2
  9
$DIMALTTD
 70
     2
  9
$DIMTXSTY
  7
STANDARD
  9
$DIMAUNIT
 70
     0
  9
$LUNITS
 70
     2
  9
$LUPREC
 70
     4
  9
$SKETCHINC
 40
0.1
  9
$FILLETRAD
 40
0.5
  9
$AUNITS
 70
     0
  9
$AUPREC
 70
     0
  9
$MENU
  1
.
  9
$ELEVATION
 40
0.0
  9
$PELEVATION
 40
0.0
  9
$THICKNESS
 40
0.0
  9
$LIMCHECK
 70
     0
  9
$CHAMFERA
 40
0.5
  9
$CHAMFERB
 40
0.5
  9
$CHAMFERC
 40
1.0
  9
$CHAMFERD
 40
0.0
  9
$SKPOLY
 70
     0
  9
$TDCREATE
 40
2459129.67770706
  9
$TDUPDATE
 40
2459129.677707141
  9
$TDINDWG
 40
0.0000000116
  9
$TDUSRTIMER
 40
0.0000000116
  9
$USRTIMER
 70
     1
  9
$ANGBASE
 50
0.0
  9
$ANGDIR
 70
     0
  9
$PDMODE
 70
     0
  9
$PDSIZE
 40
0.0
  9
$PLINEWID
 40
0.0
  9
$COORDS
 70
     1
  9
$SPLFRAME
 70
     0
  9
$SPLINETYPE
 70
     6
  9
$SPLINESEGS
 70
     8
  9
$ATTDIA
 70
     0
  9
$ATTREQ
 70
     1
  9
$HANDLING
 70
     1
  9
$HANDSEED
  5
8F
  9
$SURFTAB1
 70
     6
  9
$SURFTAB2
 70
     6
  9
$SURFTYPE
 70
     6
  9
$SURFU
 70
     6
  9
$SURFV
 70
     6
  9
$UCSNAME
  2

  9
$UCSORG
 10
0.0
 20
0.0
 30
0.0
  9
$UCSXDIR
 10
1.0
 20
0.0
 30
0.0
  9
$UCSYDIR
 10
0.0
 20
1.0
 30
0.0
  9
$PUCSNAME
  2

  9
$PUCSORG
 10
0.0
 20
0.0
 30
0.0
  9
$PUCSXDIR
 10
1.0
 20
0.0
 30
0.0
  9
$PUCSYDIR
 10
0.0
 20
1.0
 30
0.0
  9
$USERI1
 70
     0
  9
$USERI2
 70
     0
  9
$USERI3
 70
     0
  9
$USERI4
 70
     0
  9
$USERI5
 70
     0
  9
$USERR1
 40
0.0
  9
$USERR2
 40
0.0
  9
$USERR3
 40
0.0
  9
$USERR4
 40
0.0
  9
$USERR5
 40
0.0
  9
$WORLDVIEW
 70
     1
  9
$SHADEDGE
 70
     3
  9
$SHADEDIF
 70
    70
  9
$TILEMODE
 70
     1
  9
$MAXACTVP
 70
    64
  9
$PINSBASE
 10
0.0
 20
0.0
 30
0.0
  9
$PLIMCHECK
 70
     0
  9
$PEXTMIN
 10
1.000000000000000E+20
 20
1.000000000000000E+20
 30
1.000000000000000E+20
  9
$PEXTMAX
 10
-1.000000000000000E+20
 20
-1.000000000000000E+20
 30
-1.000000000000000E+20
  9
$PLIMMIN
 10
0.0
 20
0.0
  9
$PLIMMAX
 10
12.0
 20
9.0
  9
$UNITMODE
 70
     0
  9
$VISRETAIN
 70
     1
  9
$PLINEGEN
 70
     0
  9
$PSLTSCALE
 70
     1
  9
$TREEDEPTH
 70
  3020
  9
$PICKSTYLE
 70
     1
  9
$CMLSTYLE
  2
STANDARD
  9
$CMLJUST
 70
     0
  9
$CMLSCALE
 40
1.0
  9
$PROXYGRAPHICS
 70
     1
  9
$MEASUREMENT
 70
     0
  0
ENDSEC
  0
SECTION
  2
CLASSES
  0
CLASS
  1
ACDBDICTIONARYWDFLT
  2
AcDbDictionaryWithDefault
  3
ObjectDBX Classes
 90
        0
280
     0
281
     0
  0
CLASS
  1
VISUALSTYLE
  2
AcDbVisualStyle
  3
ObjectDBX Classes
 90
     4095
280
     0
281
     0
  0
CLASS
  1
MATERIAL
  2
AcDbMaterial
  3
ObjectDBX Classes
 90
     1153
280
     0
281
     0
  0
CLASS
  1
SUN
  2
AcDbSun
  3
SCENEOE
 90
     1024
280
     0
281
     0
  0
CLASS
  1
DICTIONARYVAR
  2
AcDbDictionaryVar
  3
ObjectDBX Classes
 90
        0
280
     0
281
     0
  0
CLASS
  1
XRECORD
  2
AcDbXrecord
  3
AutoCAD 2000
 90
        0
280
     0
281
     0
  0
CLASS
  1
LWPOLYLINE
  2
AcDbPolyline
  3
AutoCAD 2000
 90
        0
280
     0
281
     1
  0
CLASS
  1
HATCH
  2
AcDbHatch
  3
AutoCAD 2000
 90
        0
280
     0
281
     1
  0
CLASS
  1
ACDBPLACEHOLDER
  2
AcDbPlaceHolder
  3
ObjectDBX Classes
 90
        0
280
     0
281
     0
  0
CLASS
  1
LAYOUT
  2
AcDbLayout
  3
ObjectDBX Classes
 90
        0
280
     0
281
     0
  0
ENDSEC
  0
SECTION
  2
TABLES
  0
TABLE
  2
VPORT
  5
8
330
0
100
AcDbSymbolTable
 70
     1
  0
VPORT
  5
29
330
8
100
AcDbSymbolTableRecord
100
AcDbViewportTableRecord
  2
*ACTIVE
 70
     0
 10
0.0
 20
0.0
 11
1.0
 21
1.0
 12
0.0
 22
0.0
 13
0.0
 23
0.0
 14
0.5
 24
0.5
 15
0.5
 25
0.5
 16
0.0
 26
0.0
 36
1.0
 17
148.4999999628701
 27
-104.9999999737534
 37
0.0
 40
209.9999999475068
 41
1.414285714285622
 42
50.0
 43
0.0
 44
0.0
 50
0.0
 51
0.0
 71
     0
 72
   100
 73
     1
 74
     3
 75
     0
 76
     0
 77
     0
 78
     0
  0
ENDTAB
  0
TABLE
  2
LTYPE
  5
5
330
0
100
AcDbSymbolTable
 70
     1
  0
LTYPE
  5
14
330
5
100
AcDbSymbolTableRecord
100
AcDbLinetypeTableRecord
  2
BYBLOCK
 70
     0
  3

 72
    65
 73
     0
 40
0.0
  0
LTYPE
  5
15
330
5
100
AcDbSymbolTableRecord
100
AcDbLinetypeTableRecord
  2
BYLAYER
 70
     0
  3

 72
    65
 73
     0
 40
0.0
  0
LTYPE
  5
16
330
5
100
AcDbSymbolTableRecord
100
AcDbLinetypeTableRecord
  2
CONTINUOUS
 70
     0
  3
Solid line
 72
    65
 73
     0
 40
0.0
  0
ENDTAB
  0
TABLE
  2
LAYER
  5
2
330
0
100
AcDbSymbolTable
 70
     2
  0
LAYER
  5
10
330
2
100
AcDbSymbolTableRecord
100
AcDbLayerTableRecord
  2
0
 70
     0
 62
     7
  6
CONTINUOUS
  0
LAYER
  5
40
330
2
100
AcDbSymbolTableRecord
100
AcDbLayerTableRecord
  2
LAYER_1
 70
     0
 62
     7
  6
CONTINUOUS
  0
ENDTAB
  0
TABLE
  2
STYLE
  5
3
330
0
100
AcDbSymbolTable
 70
     1
  0
STYLE
  5
11
330
3
100
AcDbSymbolTableRecord
100
AcDbTextStyleTableRecord
  2
STANDARD
 70
     0
 40
0.0
 41
1.0
 50
0.0
 71
     0
 42
0.2
  3
txt
  4

  0
ENDTAB
  0
TABLE
  2
VIEW
  5
6
330
0
100
AcDbSymbolTable
 70
     0
  0
ENDTAB
  0
TABLE
  2
UCS
  5
7
330
0
100
AcDbSymbolTable
 70
     0
  0
ENDTAB
  0
TABLE
  2
APPID
  5
9
330
0
100
AcDbSymbolTable
 70
     1
  0
APPID
  5
12
330
9
100
AcDbSymbolTableRecord
100
AcDbRegAppTableRecord
  2
ACAD
 70
     0
  0
ENDTAB
  0
TABLE
  2
DIMSTYLE
  5
A
330
0
100
AcDbSymbolTable
 70
     1
  0
DIMSTYLE
105
27
330
A
100
AcDbSymbolTableRecord
100
AcDbDimStyleTableRecord
  2
STANDARD
 70
     0
  3

  4

  5

  6

  7

 40
1.0
 41
0.18
 42
0.0625
 43
0.38
 44
0.18
 45
0.0
 46
0.0
 47
0.0
 48
0.0
140
0.18
141
0.09
142
0.0
143
25.4
144
1.0
145
0.0
146
1.0
147
0.09
 71
     0
 72
     0
 73
     1
 74
     1
 75
     0
 76
     0
 77
     0
 78
     0
170
     0
171
     2
172
     0
173
     0
174
     0
175
     0
176
     0
177
     0
178
     0
270
     2
271
     4
272
     4
273
     2
274
     2
340
11
275
     0
280
     0
281
     0
282
     0
283
     1
284
     0
285
     0
286
     0
287
     3
288
     0
  0
ENDTAB
  0
TABLE
  2
BLOCK_RECORD
  5
1
330
0
100
AcDbSymbolTable
 70
     1
  0
BLOCK_RECORD
  5
1F
330
1
100
AcDbSymbolTableRecord
100
AcDbBlockTableRecord
  2
*MODEL_SPACE
  0
BLOCK_RECORD
  5
1B
330
1
100
AcDbSymbolTableRecord
100
AcDbBlockTableRecord
  2
*PAPER_SPACE
  0
ENDTAB
  0
ENDSEC
  0
SECTION
  2
BLOCKS
  0
BLOCK
  5
20
330
1F
100
AcDbEntity
  8
0
100
AcDbBlockBegin
  2
*MODEL_SPACE
 70
     0
 10
0.0
 20
0.0
 30
0.0
  3
*MODEL_SPACE
  1

  0
ENDBLK
  5
21
330
1F
100
AcDbEntity
  8
0
100
AcDbBlockEnd
  0
BLOCK
  5
1C
330
1B
100
AcDbEntity
 67
     1
  8
0
100
AcDbBlockBegin
  2
*PAPER_SPACE
 70
     0
 10
0.0
 20
0.0
 30
0.0
  3
*PAPER_SPACE
  1

  0
ENDBLK
  5
1D
330
1B
100
AcDbEntity
 67
     1
  8
0
100
AcDbBlockEnd
  0
ENDSEC
  0
SECTION
  2
ENTITIES
  0
SPLINE
  5
41
330
1F
100
AcDbEntity
  8
LAYER_1
 62
     1
100
AcDbSpline
210
0.0
220
0.0
230
1.0
 70
    11
 71
     3
 72
    17
 73
    13
 74
     0
 42
0.0000000001
 43
0.0000000001
 12
1.0
 22
0.0
 32
0.0
 13
1.0
 23
0.0
 33
0.0
 40
0.0
 40
0.0
 40
0.0
 40
0.0
 40
1.0
 40
1.0
 40
1.0
 40
2.0
 40
2.0
 40
2.0
 40
3.0
 40
3.0
 40
3.0
 40
4.0
 40
4.0
 40
4.0
 40
4.0
 10
389.9680949500084
 20
-110.8880368142478
 30
0.0
 10
388.3112407010219
 20
-110.8880368142478
 30
0.0
 10
386.9680949507559
 20
-109.5448910639818
 30
0.0
 10
386.9680949507559
 20
-107.8880368149966
 30
0.0
 10
386.9680949507559
 20
-106.2311825660138
 30
0.0
 10
388.3112407010219
 20
-104.8880368157479
 30
0.0
 10
389.9680949500084
 20
-104.8880368157479
 30
0.0
 10
391.6249491989944
 20
-104.8880368157479
 30
0.0
 10
392.9680949492571
 20
-106.2311825660138
 30
0.0
 10
392.9680949492571
 20
-107.8880368149966
 30
0.0
 10
392.9680949492571
 20
-109.5448910639818
 30
0.0
 10
391.6249491989944
 20
-110.8880368142478
 30
0.0
 10
389.9680949500084
 20
-110.8880368142478
 30
0.0
  0
SPLINE
  5
42
330
1F
100
AcDbEntity
  8
LAYER_1
 62
     1
100
AcDbSpline
210
0.0
220
0.0
230
1.0
 70
    11
 71
     3
 72
    17
 73
    13
 74
     0
 42
0.0000000001
 43
0.0000000001
 12
1.0
 22
0.0
 32
0.0
 13
1.0
 23
0.0
 33
0.0
 40
0.0
 40
0.0
 40
0.0
 40
0.0
 40
1.0
 40
1.0
 40
1.0
 40
2.0
 40
2.0
 40
2.0
 40
3.0
 40
3.0
 40
3.0
 40
4.0
 40
4.0
 40
4.0
 40
4.0
 10
394.468274090846
 20
-104.1382329616346
 30
0.0
 10
394.0540605285984
 20
-104.1382329616346
 30
0.0
 10
393.7182740910328
 20
-103.8024465240691
 30
0.0
 10
393.7182740910328
 20
-103.3882329618183
 30
0.0
 10
393.7182740910328
 20
-102.9740193995739
 30
0.0
 10
394.0540605285984
 20
-102.6382329620083
 30
0.0
 10
394.468274090846
 20
-102.6382329620083
 30
0.0
 10
394.8824876530897
 20
-102.6382329620083
 30
0.0
 10
395.2182740906591
 20
-102.9740193995739
 30
0.0
 10
395.2182740906591
 20
-103.3882329618183
 30
0.0
 10
395.2182740906591
 20
-103.8024465240691
 30
0.0
 10
394.8824876530897
 20
-104.1382329616346
 30
0.0
 10
394.468274090846
 20
-104.1382329616346
 30
0.0
  0
SPLINE
  5
43
330
1F
100
AcDbEntity
  8
LAYER_1
 62
     1
100
AcDbSpline
210
0.0
220
0.0
230
1.0
 70
    11
 71
     3
 72
    17
 73
    13
 74
     0
 42
0.0000000001
 43
0.0000000001
 12
1.0
 22
0.0
 32
0.0
 13
1.0
 23
0.0
 33
0.0
 40
0.0
 40
0.0
 40
0.0
 40
0.0
 40
1.0
 40
1.0
 40
1.0
 40
2.0
 40
2.0
 40
2.0
 40
3.0
 40
3.0
 40
3.0
 40
4.0
 40
4.0
 40
4.0
 40
4.0
 10
385.4679158091703
 20
-104.1382329616346
 30
0.0
 10
385.0537022469234
 20
-104.1382329616346
 30
0.0
 10
384.7179158093578
 20
-103.8024465240691
 30
0.0
 10
384.7179158093578
 20
-103.3882329618183
 30
0.0
 10
384.7179158093578
 20
-102.9740193995739
 30
0.0
 10
385.0537022469234
 20
-102.6382329620083
 30
0.0
 10
385.4679158091703
 20
-102.6382329620083
 30
0.0
 10
385.8821293714179
 20
-102.6382329620083
 30
0.0
 10
386.2179158089834
 20
-102.9740193995739
 30
0.0
 10
386.2179158089834
 20
-103.3882329618183
 30
0.0
 10
386.2179158089834
 20
-103.8024465240691
 30
0.0
 10
385.8821293714179
 20
-104.1382329616346
 30
0.0
 10
385.4679158091703
 20
-104.1382329616346
 30
0.0
  0
SPLINE
  5
44
330
1F
100
AcDbEntity
  8
LAYER_1
 62
     1
100
AcDbSpline
210
0.0
220
0.0
230
1.0
 70
    11
 71
     3
 72
    17
 73
    13
 74
     0
 42
0.0000000001
 43
0.0000000001
 12
1.0
 22
0.0
 32
0.0
 13
1.0
 23
0.0
 33
0.0
 40
0.0
 40
0.0
 40
0.0
 40
0.0
 40
1.0
 40
1.0
 40
1.0
 40
2.0
 40
2.0
 40
2.0
 40
3.0
 40
3.0
 40
3.0
 40
4.0
 40
4.0
 40
4.0
 40
4.0
 10
394.468274090846
 20
-113.1378406679873
 30
0.0
 10
394.0540605285984
 20
-113.1378406679873
 30
0.0
 10
393.7182740910328
 20
-112.8020542304218
 30
0.0
 10
393.7182740910328
 20
-112.387840668171
 30
0.0
 10
393.7182740910328
 20
-111.9736271059266
 30
0.0
 10
394.0540605285984
 20
-111.6378406683611
 30
0.0
 10
394.468274090846
 20
-111.6378406683611
 30
0.0
 10
394.8824876530897
 20
-111.6378406683611
 30
0.0
 10
395.2182740906591
 20
-111.9736271059266
 30
0.0
 10
395.2182740906591
 20
-112.387840668171
 30
0.0
 10
395.2182740906591
 20
-112.8020542304218
 30
0.0
 10
394.8824876530897
 20
-113.1378406679873
 30
0.0
 10
394.468274090846
 20
-113.1378406679873
 30
0.0
  0
SPLINE
  5
45
330
1F
100
AcDbEntity
  8
LAYER_1
 62
     1
100
AcDbSpline
210
0.0
220
0.0
230
1.0
 70
    11
 71
     3
 72
    17
 73
    13
 74
     0
 42
0.0000000001
 43
0.0000000001
 12
1.0
 22
0.0
 32
0.0
 13
1.0
 23
0.0
 33
0.0
 40
0.0
 40
0.0
 40
0.0
 40
0.0
 40
1.0
 40
1.0
 40
1.0
 40
2.0
 40
2.0
 40
2.0
 40
3.0
 40
3.0
 40
3.0
 40
4.0
 40
4.0
 40
4.0
 40
4.0
 10
385.4679158091703
 20
-113.1378406679873
 30
0.0
 10
385.0537022469234
 20
-113.1378406679873
 30
0.0
 10
384.7179158093578
 20
-112.8020542304218
 30
0.0
 10
384.7179158093578
 20
-112.387840668171
 30
0.0
 10
384.7179158093578
 20
-111.9736271059266
 30
0.0
 10
385.0537022469234
 20
-111.6378406683611
 30
0.0
 10
385.4679158091703
 20
-111.6378406683611
 30
0.0
 10
385.8821293714179
 20
-111.6378406683611
 30
0.0
 10
386.2179158089834
 20
-111.9736271059266
 30
0.0
 10
386.2179158089834
 20
-112.387840668171
 30
0.0
 10
386.2179158089834
 20
-112.8020542304218
 30
0.0
 10
385.8821293714179
 20
-113.1378406679873
 30
0.0
 10
385.4679158091703
 20
-113.1378406679873
 30
0.0
  0
SPLINE
  5
46
330
1F
100
AcDbEntity
  8
LAYER_1
 62
     1
100
AcDbSpline
210
0.0
220
0.0
230
1.0
 70
    11
 71
     3
 72
    17
 73
    13
 74
     0
 42
0.0000000001
 43
0.0000000001
 12
1.0
 22
0.0
 32
0.0
 13
1.0
 23
0.0
 33
0.0
 40
0.0
 40
0.0
 40
0.0
 40
0.0
 40
1.0
 40
1.0
 40
1.0
 40
2.0
 40
2.0
 40
2.0
 40
3.0
 40
3.0
 40
3.0
 40
4.0
 40
4.0
 40
4.0
 40
4.0
 10
371.9677366705836
 20
-110.8880368142478
 30
0.0
 10
370.310882421597
 20
-110.8880368142478
 30
0.0
 10
368.9677366713317
 20
-109.5448910639857
 30
0.0
 10
368.9677366713317
 20
-107.8880368149991
 30
0.0
 10
368.9677366713317
 20
-106.2311825660138
 30
0.0
 10
370.310882421597
 20
-104.8880368157479
 30
0.0
 10
371.9677366705836
 20
-104.8880368157479
 30
0.0
 10
373.6245909195702
 20
-104.8880368157479
 30
0.0
 10
374.9677366698322
 20
-106.2311825660138
 30
0.0
 10
374.9677366698322
 20
-107.8880368149991
 30
0.0
 10
374.9677366698322
 20
-109.5448910639857
 30
0.0
 10
373.6245909195702
 20
-110.8880368142478
 30
0.0
 10
371.9677366705836
 20
-110.8880368142478
 30
0.0
  0
SPLINE
  5
47
330
1F
100
AcDbEntity
  8
LAYER_1
 62
     1
100
AcDbSpline
210
0.0
220
0.0
230
1.0
 70
    11
 71
     3
 72
    17
 73
    13
 74
     0
 42
0.0000000001
 43
0.0000000001
 12
1.0
 22
0.0
 32
0.0
 13
1.0
 23
0.0
 33
0.0
 40
0.0
 40
0.0
 40
0.0
 40
0.0
 40
1.0
 40
1.0
 40
1.0
 40
2.0
 40
2.0
 40
2.0
 40
3.0
 40
3.0
 40
3.0
 40
4.0
 40
4.0
 40
4.0
 40
4.0
 10
376.4679158114211
 20
-104.1382329616346
 30
0.0
 10
376.0537022491741
 20
-104.1382329616346
 30
0.0
 10
375.7179158116086
 20
-103.8024465240691
 30
0.0
 10
375.7179158116086
 20
-103.3882329618221
 30
0.0
 10
375.7179158116086
 20
-102.9740193995739
 30
0.0
 10
376.0537022491741
 20
-102.6382329620083
 30
0.0
 10
376.4679158114211
 20
-102.6382329620083
 30
0.0
 10
376.8821293736655
 20
-102.6382329620083
 30
0.0
 10
377.2179158112342
 20
-102.9740193995739
 30
0.0
 10
377.2179158112342
 20
-103.3882329618221
 30
0.0
 10
377.2179158112342
 20
-103.8024465240691
 30
0.0
 10
376.8821293736655
 20
-104.1382329616346
 30
0.0
 10
376.4679158114211
 20
-104.1382329616346
 30
0.0
  0
SPLINE
  5
48
330
1F
100
AcDbEntity
  8
LAYER_1
 62
     1
100
AcDbSpline
210
0.0
220
0.0
230
1.0
 70
    11
 71
     3
 72
    17
 73
    13
 74
     0
 42
0.0000000001
 43
0.0000000001
 12
1.0
 22
0.0
 32
0.0
 13
1.0
 23
0.0
 33
0.0
 40
0.0
 40
0.0
 40
0.0
 40
0.0
 40
1.0
 40
1.0
 40
1.0
 40
2.0
 40
2.0
 40
2.0
 40
3.0
 40
3.0
 40
3.0
 40
4.0
 40
4.0
 40
4.0
 40
4.0
 10
367.467557529746
 20
-104.1382329616353
 30
0.0
 10
367.0533439674984
 20
-104.1382329616353
 30
0.0
 10
366.7175575299329
 20
-103.8024465240697
 30
0.0
 10
366.7175575299329
 20
-103.3882329618221
 30
0.0
 10
366.7175575299329
 20
-102.9740193995745
 30
0.0
 10
367.0533439674984
 20
-102.638232962009
 30
0.0
 10
367.467557529746
 20
-102.638232962009
 30
0.0
 10
367.8817710919898
 20
-102.638232962009
 30
0.0
 10
368.2175575295592
 20
-102.9740193995745
 30
0.0
 10
368.2175575295592
 20
-103.3882329618221
 30
0.0
 10
368.2175575295592
 20
-103.8024465240697
 30
0.0
 10
367.8817710919898
 20
-104.1382329616353
 30
0.0
 10
367.467557529746
 20
-104.1382329616353
 30
0.0
  0
SPLINE
  5
49
330
1F
100
AcDbEntity
  8
LAYER_1
 62
     1
100
AcDbSpline
210
0.0
220
0.0
230
1.0
 70
    11
 71
     3
 72
    17
 73
    13
 74
     0
 42
0.0000000001
 43
0.0000000001
 12
1.0
 22
0.0
 32
0.0
 13
1.0
 23
0.0
 33
0.0
 40
0.0
 40
0.0
 40
0.0
 40
0.0
 40
1.0
 40
1.0
 40
1.0
 40
2.0
 40
2.0
 40
2.0
 40
3.0
 40
3.0
 40
3.0
 40
4.0
 40
4.0
 40
4.0
 40
4.0
 10
376.4679158114211
 20
-113.1378406679873
 30
0.0
 10
376.0537022491741
 20
-113.1378406679873
 30
0.0
 10
375.7179158116086
 20
-112.8020542304218
 30
0.0
 10
375.7179158116086
 20
-112.3878406681736
 30
0.0
 10
375.7179158116086
 20
-111.9736271059304
 30
0.0
 10
376.0537022491741
 20
-111.6378406683611
 30
0.0
 10
376.4679158114211
 20
-111.6378406683611
 30
0.0
 10
376.8821293736655
 20
-111.6378406683611
 30
0.0
 10
377.2179158112342
 20
-111.9736271059304
 30
0.0
 10
377.2179158112342
 20
-112.3878406681736
 30
0.0
 10
377.2179158112342
 20
-112.8020542304218
 30
0.0
 10
376.8821293736655
 20
-113.1378406679873
 30
0.0
 10
376.4679158114211
 20
-113.1378406679873
 30
0.0
  0
SPLINE
  5
4A
330
1F
100
AcDbEntity
  8
LAYER_1
 62
     1
100
AcDbSpline
210
0.0
220
0.0
230
1.0
 70
    11
 71
     3
 72
    17
 73
    13
 74
     0
 42
0.0000000001
 43
0.0000000001
 12
1.0
 22
0.0
 32
0.0
 13
1.0
 23
0.0
 33
0.0
 40
0.0
 40
0.0
 40
0.0
 40
0.0
 40
1.0
 40
1.0
 40
1.0
 40
2.0
 40
2.0
 40
2.0
 40
3.0
 40
3.0
 40
3.0
 40
4.0
 40
4.0
 40
4.0
 40
4.0
 10
367.467557529746
 20
-113.1378406679873
 30
0.0
 10
367.0533439674984
 20
-113.1378406679873
 30
0.0
 10
366.7175575299329
 20
-112.8020542304218
 30
0.0
 10
366.7175575299329
 20
-112.3878406681736
 30
0.0
 10
366.7175575299329
 20
-111.9736271059304
 30
0.0
 10
367.0533439674984
 20
-111.6378406683611
 30
0.0
 10
367.467557529746
 20
-111.6378406683611
 30
0.0
 10
367.8817710919898
 20
-111.6378406683611
 30
0.0
 10
368.2175575295592
 20
-111.9736271059304
 30
0.0
 10
368.2175575295592
 20
-112.3878406681736
 30
0.0
 10
368.2175575295592
 20
-112.8020542304218
 30
0.0
 10
367.8817710919898
 20
-113.1378406679873
 30
0.0
 10
367.467557529746
 20
-113.1378406679873
 30
0.0
  0
SPLINE
  5
4B
330
1F
100
AcDbEntity
  8
LAYER_1
 62
     1
100
AcDbSpline
210
0.0
220
0.0
230
1.0
 70
    11
 71
     3
 72
    17
 73
    13
 74
     0
 42
0.0000000001
 43
0.0000000001
 12
1.0
 22
0.0
 32
0.0
 13
1.0
 23
0.0
 33
0.0
 40
0.0
 40
0.0
 40
0.0
 40
0.0
 40
1.0
 40
1.0
 40
1.0
 40
2.0
 40
2.0
 40
2.0
 40
3.0
 40
3.0
 40
3.0
 40
4.0
 40
4.0
 40
4.0
 40
4.0
 10
378.3102139910135
 20
-106.8173969798288
 30
0.0
 10
378.9393114977084
 20
-105.2846209591876
 30
0.0
 10
380.6918562629661
 20
-104.5520447797461
 30
0.0
 10
382.2246322836073
 20
-105.1811422864421
 30
0.0
 10
383.7574083042447
 20
-105.8102397931386
 30
0.0
 10
384.48998448369
 20
-107.562784558393
 30
0.0
 10
383.8608869769918
 20
-109.0955605790349
 30
0.0
 10
383.2317894702975
 20
-110.6283365996761
 30
0.0
 10
381.4792447050431
 20
-111.3609127791138
 30
0.0
 10
379.9464686844051
 20
-110.7318152724188
 30
0.0
 10
378.4136926637606
 20
-110.1027177657251
 30
0.0
 10
377.6811164843191
 20
-108.3501730004701
 30
0.0
 10
378.3102139910135
 20
-106.8173969798288
 30
0.0
  0
SPLINE
  5
4C
330
1F
100
AcDbEntity
  8
LAYER_1
 62
     1
100
AcDbSpline
210
0.0
220
0.0
230
1.0
 70
    11
 71
     3
 72
    17
 73
    13
 74
     0
 42
0.0000000001
 43
0.0000000001
 12
1.0
 22
0.0
 32
0.0
 13
1.0
 23
0.0
 33
0.0
 40
0.0
 40
0.0
 40
0.0
 40
0.0
 40
1.0
 40
1.0
 40
1.0
 40
2.0
 40
2.0
 40
2.0
 40
3.0
 40
3.0
 40
3.0
 40
4.0
 40
4.0
 40
4.0
 40
4.0
 10
391.9793316244711
 20
-73.51302761114653
 30
0.0
 10
392.6084291311693
 20
-71.98025159050466
 30
0.0
 10
394.3609738964198
 20
-71.2476754110622
 30
0.0
 10
395.8937499170649
 20
-71.87677291775877
 30
0.0
 10
397.4265259377055
 20
-72.50587042445535
 30
0.0
 10
398.1591021171476
 20
-74.25841518971008
 30
0.0
 10
397.5300046104526
 20
-75.79119121034874
 30
0.0
 10
396.9009071037583
 20
-77.32396723098965
 30
0.0
 10
395.1483623385001
 20
-78.05654341043146
 30
0.0
 10
393.6155863178556
 20
-77.42744590373809
 30
0.0
 10
392.0828102972176
 20
-76.79834839704218
 30
0.0
 10
391.3502341177761
 20
-75.0458036317884
 30
0.0
 10
391.9793316244711
 20
-73.51302761114653
 30
0.0
  0
SPLINE
  5
4D
330
1F
100
AcDbEntity
  8
LAYER_1
 62
     1
100
AcDbSpline
210
0.0
220
0.0
230
1.0
 70
    11
 71
     3
 72
    17
 73
    13
 74
     0
 42
0.0000000001
 43
0.0000000001
 12
1.0
 22
0.0
 32
0.0
 13
1.0
 23
0.0
 33
0.0
 40
0.0
 40
0.0
 40
0.0
 40
0.0
 40
1.0
 40
1.0
 40
1.0
 40
2.0
 40
2.0
 40
2.0
 40
3.0
 40
3.0
 40
3.0
 40
4.0
 40
4.0
 40
4.0
 40
4.0
 10
396.514966558406
 20
-80.23905765081089
 30
0.0
 10
396.6722409350796
 20
-79.85586364565204
 30
0.0
 10
397.1103771263942
 20
-79.67271960079262
 30
0.0
 10
397.4935711315553
 20
-79.82999397746363
 30
0.0
 10
397.8767651367164
 20
-79.98726835413882
 30
0.0
 10
398.0599091815736
 20
-80.42540454545242
 30
0.0
 10
397.9026348049032
 20
-80.80859855061193
 30
0.0
 10
397.7453604282258
 20
-81.19179255577336
 30
0.0
 10
397.307224236915
 20
-81.37493660063406
 30
0.0
 10
396.9240302317539
 20
-81.2176622239579
 30
0.0
 10
396.5408362265928
 20
-81.06038784728368
 30
0.0
 10
396.3576921817324
 20
-80.62225165597265
 30
0.0
 10
396.514966558406
 20
-80.23905765081089
 30
0.0
  0
SPLINE
  5
4E
330
1F
100
AcDbEntity
  8
LAYER_1
 62
     1
100
AcDbSpline
210
0.0
220
0.0
230
1.0
 70
    11
 71
     3
 72
    17
 73
    13
 74
     0
 42
0.0000000001
 43
0.0000000001
 12
1.0
 22
0.0
 32
0.0
 13
1.0
 23
0.0
 33
0.0
 40
0.0
 40
0.0
 40
0.0
 40
0.0
 40
1.0
 40
1.0
 40
1.0
 40
2.0
 40
2.0
 40
2.0
 40
3.0
 40
3.0
 40
3.0
 40
4.0
 40
4.0
 40
4.0
 40
4.0
 10
399.9323479954482
 20
-71.91271671902572
 30
0.0
 10
400.0896223721218
 20
-71.52952271386687
 30
0.0
 10
400.5277585634325
 20
-71.34637866900778
 30
0.0
 10
400.9109525685943
 20
-71.50365304568167
 30
0.0
 10
401.2941465737547
 20
-71.66092742235398
 30
0.0
 10
401.4772906186157
 20
-72.0990636136679
 30
0.0
 10
401.3200162419421
 20
-72.48225761882901
 30
0.0
 10
401.1627418652679
 20
-72.86545162398787
 30
0.0
 10
400.7246056739534
 20
-73.04859566884728
 30
0.0
 10
400.3414116687923
 20
-72.89132129217306
 30
0.0
 10
399.958217663635
 20
-72.73404691550044
 30
0.0
 10
399.7750736187746
 20
-72.29591072418812
 30
0.0
 10
399.9323479954482
 20
-71.91271671902572
 30
0.0
  0
SPLINE
  5
4F
330
1F
100
AcDbEntity
  8
LAYER_1
 62
     1
100
AcDbSpline
210
0.0
220
0.0
230
1.0
 70
    11
 71
     3
 72
    17
 73
    13
 74
     0
 42
0.0000000001
 43
0.0000000001
 12
1.0
 22
0.0
 32
0.0
 13
1.0
 23
0.0
 33
0.0
 40
0.0
 40
0.0
 40
0.0
 40
0.0
 40
1.0
 40
1.0
 40
1.0
 40
2.0
 40
2.0
 40
2.0
 40
3.0
 40
3.0
 40
3.0
 40
4.0
 40
4.0
 40
4.0
 40
4.0
 10
388.1893199929854
 20
-76.8219612026685
 30
0.0
 10
388.346594369659
 20
-76.43876719750804
 30
0.0
 10
388.7847305609736
 20
-76.25562315264767
 30
0.0
 10
389.1679245661308
 20
-76.41289752932254
 30
0.0
 10
389.5511185712887
 20
-76.57017190599643
 30
0.0
 10
389.7342626161529
 20
-77.00830809731164
 30
0.0
 10
389.5769882394787
 20
-77.39150210246987
 30
0.0
 10
389.419713862809
 20
-77.77469610762873
 30
0.0
 10
388.9815776714906
 20
-77.95784015248685
 30
0.0
 10
388.5983836663295
 20
-77.80056577581648
 30
0.0
 10
388.2151896611722
 20
-77.64329139914129
 30
0.0
 10
388.0320456163118
 20
-77.20515520782769
 30
0.0
 10
388.1893199929854
 20
-76.8219612026685
 30
0.0
  0
SPLINE
  5
50
330
1F
100
AcDbEntity
  8
LAYER_1
 62
     1
100
AcDbSpline
210
0.0
220
0.0
230
1.0
 70
    11
 71
     3
 72
    17
 73
    13
 74
     0
 42
0.0000000001
 43
0.0000000001
 12
1.0
 22
0.0
 32
0.0
 13
1.0
 23
0.0
 33
0.0
 40
0.0
 40
0.0
 40
0.0
 40
0.0
 40
1.0
 40
1.0
 40
1.0
 40
2.0
 40
2.0
 40
2.0
 40
3.0
 40
3.0
 40
3.0
 40
4.0
 40
4.0
 40
4.0
 40
4.0
 10
391.6067014300237
 20
-68.49562027088366
 30
0.0
 10
391.7639758066973
 20
-68.11242626572448
 30
0.0
 10
392.2021119980119
 20
-67.92928222086218
 30
0.0
 10
392.585306003173
 20
-68.08655659753737
 30
0.0
 10
392.9685000083309
 20
-68.2438309742103
 30
0.0
 10
393.1516440531951
 20
-68.68196716552583
 30
0.0
 10
392.9943696765209
 20
-69.06516117068502
 30
0.0
 10
392.8370952998441
 20
-69.44835517584613
 30
0.0
 10
392.3989591085295
 20
-69.6314992207065
 30
0.0
 10
392.0157651033716
 20
-69.47422484403164
 30
0.0
 10
391.6325710982105
 20
-69.31695046735645
 30
0.0
 10
391.4494270533502
 20
-68.8788142760422
 30
0.0
 10
391.6067014300237
 20
-68.49562027088366
 30
0.0
  0
SPLINE
  5
51
330
1F
100
AcDbEntity
  8
LAYER_1
 62
     1
100
AcDbSpline
210
0.0
220
0.0
230
1.0
 70
    11
 71
     3
 72
    17
 73
    13
 74
     0
 42
0.0000000001
 43
0.0000000001
 12
1.0
 22
0.0
 32
0.0
 13
1.0
 23
0.0
 33
0.0
 40
0.0
 40
0.0
 40
0.0
 40
0.0
 40
1.0
 40
1.0
 40
1.0
 40
2.0
 40
2.0
 40
2.0
 40
3.0
 40
3.0
 40
3.0
 40
4.0
 40
4.0
 40
4.0
 40
4.0
 10
364.4331753234715
 20
-75.89806050649031
 30
0.0
 10
363.7941781182514
 20
-74.36938507524174
 30
0.0
 10
364.5154048218733
 20
-72.61213920318018
 30
0.0
 10
366.0440802531238
 20
-71.97314199795716
 30
0.0
 10
367.5727556843711
 20
-71.3341447927303
 30
0.0
 10
369.3300015564346
 20
-72.0553714963574
 30
0.0
 10
369.9689987616586
 20
-73.58404692760404
 30
0.0
 10
370.6079959668858
 20
-75.11272235885035
 30
0.0
 10
369.8867692632567
 20
-76.86996823091481
 30
0.0
 10
368.3580938320062
 20
-77.50896543614135
 30
0.0
 10
366.8294184007589
 20
-78.14796264136405
 30
0.0
 10
365.0721725286993
 20
-77.42673593773566
 30
0.0
 10
364.4331753234715
 20
-75.89806050649031
 30
0.0
  0
SPLINE
  5
52
330
1F
100
AcDbEntity
  8
LAYER_1
 62
     1
100
AcDbSpline
210
0.0
220
0.0
230
1.0
 70
    11
 71
     3
 72
    17
 73
    13
 74
     0
 42
0.0000000001
 43
0.0000000001
 12
1.0
 22
0.0
 32
0.0
 13
1.0
 23
0.0
 33
0.0
 40
0.0
 40
0.0
 40
0.0
 40
0.0
 40
1.0
 40
1.0
 40
1.0
 40
2.0
 40
2.0
 40
2.0
 40
3.0
 40
3.0
 40
3.0
 40
4.0
 40
4.0
 40
4.0
 40
4.0
 10
372.3963749937573
 20
-77.44690373923096
 30
0.0
 10
372.2366256924519
 20
-77.06473488142139
 30
0.0
 10
372.4169323683587
 20
-76.6254234134023
 30
0.0
 10
372.7991012261721
 20
-76.46567411209726
 30
0.0
 10
373.1812700839817
 20
-76.30592481079191
 30
0.0
 10
373.6205815519972
 20
-76.48623148669805
 30
0.0
 10
373.7803308533058
 20
-76.86840034450859
 30
0.0
 10
373.9400801546105
 20
-77.25056920232232
 30
0.0
 10
373.7597734787043
 20
-77.68988067033659
 30
0.0
 10
373.377604620891
 20
-77.8496299716413
 30
0.0
 10
372.9954357630775
 20
-78.00937927294827
 30
0.0
 10
372.5561242950658
 20
-77.82907259704118
 30
0.0
 10
372.3963749937573
 20
-77.44690373923096
 30
0.0
  0
SPLINE
  5
53
330
1F
100
AcDbEntity
  8
LAYER_1
 62
     1
100
AcDbSpline
210
0.0
220
0.0
230
1.0
 70
    11
 71
     3
 72
    17
 73
    13
 74
     0
 42
0.0000000001
 43
0.0000000001
 12
1.0
 22
0.0
 32
0.0
 13
1.0
 23
0.0
 33
0.0
 40
0.0
 40
0.0
 40
0.0
 40
0.0
 40
1.0
 40
1.0
 40
1.0
 40
2.0
 40
2.0
 40
2.0
 40
3.0
 40
3.0
 40
3.0
 40
4.0
 40
4.0
 40
4.0
 40
4.0
 10
368.9252164464527
 20
-69.1428380158642
 30
0.0
 10
368.7654671451474
 20
-68.76066915805205
 30
0.0
 10
368.9457738210542
 20
-68.32135769003457
 30
0.0
 10
369.3279426788637
 20
-68.16160838872794
 30
0.0
 10
369.7101115366778
 20
-68.00185908742323
 30
0.0
 10
370.1494230046927
 20
-68.18216576332968
 30
0.0
 10
370.3091723059974
 20
-68.56433462114407
 30
0.0
 10
370.468921607306
 20
-68.94650347895333
 30
0.0
 10
370.2886149313999
 20
-69.38581494696824
 30
0.0
 10
369.9064460735864
 20
-69.5455642482739
 30
0.0
 10
369.5242772157762
 20
-69.70531354957926
 30
0.0
 10
369.0849657477613
 20
-69.52500687367314
 30
0.0
 10
368.9252164464527
 20
-69.1428380158642
 30
0.0
  0
SPLINE
  5
54
330
1F
100
AcDbEntity
  8
LAYER_1
 62
     1
100
AcDbSpline
210
0.0
220
0.0
230
1.0
 70
    11
 71
     3
 72
    17
 73
    13
 74
     0
 42
0.0000000001
 43
0.0000000001
 12
1.0
 22
0.0
 32
0.0
 13
1.0
 23
0.0
 33
0.0
 40
0.0
 40
0.0
 40
0.0
 40
0.0
 40
1.0
 40
1.0
 40
1.0
 40
2.0
 40
2.0
 40
2.0
 40
3.0
 40
3.0
 40
3.0
 40
4.0
 40
4.0
 40
4.0
 40
4.0
 10
364.0930017791326
 20
-80.91777281295316
 30
0.0
 10
363.9332524778272
 20
-80.53560395514229
 30
0.0
 10
364.1135591537334
 20
-80.09629248712771
 30
0.0
 10
364.4957280115474
 20
-79.93654318581915
 30
0.0
 10
364.877896869357
 20
-79.7767938845154
 30
0.0
 10
365.3172083373757
 20
-79.95710056041864
 30
0.0
 10
365.4769576386805
 20
-80.33926941822982
 30
0.0
 10
365.6367069399859
 20
-80.72143827604357
 30
0.0
 10
365.4564002640759
 20
-81.1607497440604
 30
0.0
 10
365.0742314062663
 20
-81.3204990453635
 30
0.0
 10
364.6920625484528
 20
-81.4802483466724
 30
0.0
 10
364.2527510804412
 20
-81.29994167076562
 30
0.0
 10
364.0930017791326
 20
-80.91777281295316
 30
0.0
  0
SPLINE
  5
55
330
1F
100
AcDbEntity
  8
LAYER_1
 62
     1
100
AcDbSpline
210
0.0
220
0.0
230
1.0
 70
    11
 71
     3
 72
    17
 73
    13
 74
     0
 42
0.0000000001
 43
0.0000000001
 12
1.0
 22
0.0
 32
0.0
 13
1.0
 23
0.0
 33
0.0
 40
0.0
 40
0.0
 40
0.0
 40
0.0
 40
1.0
 40
1.0
 40
1.0
 40
2.0
 40
2.0
 40
2.0
 40
3.0
 40
3.0
 40
3.0
 40
4.0
 40
4.0
 40
4.0
 40
4.0
 10
360.6218432318281
 20
-72.61370708958736
 30
0.0
 10
360.4620939305266
 20
-72.2315382317733
 30
0.0
 10
360.6424006064295
 20
-71.79222676375934
 30
0.0
 10
361.024569464243
 20
-71.63247746245399
 30
0.0
 10
361.4067383220525
 20
-71.47272816114736
 30
0.0
 10
361.8460497900713
 20
-71.65303483705092
 30
0.0
 10
362.0057990913766
 20
-72.03520369486499
 30
0.0
 10
362.1655483926813
 20
-72.41737255267617
 30
0.0
 10
361.9852417167714
 20
-72.8566840206914
 30
0.0
 10
361.6030728589618
 20
-73.01643332199836
 30
0.0
 10
361.2209040011516
 20
-73.17618262330306
 30
0.0
 10
360.7815925331328
 20
-72.99587594739789
 30
0.0
 10
360.6218432318281
 20
-72.61370708958736
 30
0.0
  0
SPLINE
  5
56
330
1F
100
AcDbEntity
  8
LAYER_1
 62
     7
100
AcDbSpline
210
0.0
220
0.0
230
1.0
 70
    11
 71
     3
 72
    65
 73
    61
 74
     0
 42
0.0000000001
 43
0.0000000001
 12
1.0
 22
0.0
 32
0.0
 13
1.0
 23
0.0
 33
0.0
 40
0.0
 40
0.0
 40
0.0
 40
0.0
 40
1.0
 40
1.0
 40
1.0
 40
2.0
 40
2.0
 40
2.0
 40
3.0
 40
3.0
 40
3.0
 40
4.0
 40
4.0
 40
4.0
 40
5.0
 40
5.0
 40
5.0
 40
6.0
 40
6.0
 40
6.0
 40
7.0
 40
7.0
 40
7.0
 40
8.0
 40
8.0
 40
8.0
 40
9.0
 40
9.0
 40
9.0
 40
10.0
 40
10.0
 40
10.0
 40
11.0
 40
11.0
 40
11.0
 40
12.0
 40
12.0
 40
12.0
 40
13.0
 40
13.0
 40
13.0
 40
14.0
 40
14.0
 40
14.0
 40
15.0
 40
15.0
 40
15.0
 40
16.0
 40
16.0
 40
16.0
 40
17.0
 40
17.0
 40
17.0
 40
18.0
 40
18.0
 40
18.0
 40
19.0
 40
19.0
 40
19.0
 40
20.0
 40
20.0
 40
20.0
 40
20.0
 10
405.3593226796951
 20
-72.51699912059688
 30
0.0
 10
405.3593226796951
 20
-72.51699912059688
 30
0.0
 10
394.5360815121522
 20
-98.88713800289324
 30
0.0
 10
394.5360815121522
 20
-98.88713800289324
 30
0.0
 10
394.5360815121522
 20
-98.88713800289324
 30
0.0
 10
395.9683368964526
 20
-98.88713800289324
 30
0.0
 10
395.9683368964526
 20
-98.88713800289324
 30
0.0
 10
397.6193558440624
 20
-98.88713800289324
 30
0.0
 10
398.9669480068141
 20
-100.2382829203618
 30
0.0
 10
398.9669480068141
 20
-101.8892803361271
 30
0.0
 10
398.9669480068141
 20
-101.8892803361271
 30
0.0
 10
398.9669480068141
 20
-113.8872344685985
 30
0.0
 10
398.9669480068141
 20
-113.8872344685985
 30
0.0
 10
398.9669480068141
 20
-115.5382534162109
 30
0.0
 10
397.6193558440624
 20
-116.8893768018324
 30
0.0
 10
395.9683368964526
 20
-116.8893768018324
 30
0.0
 10
395.9683368964526
 20
-116.8893768018324
 30
0.0
 10
365.9681439650407
 20
-116.8893768018324
 30
0.0
 10
365.9681439650407
 20
-116.8893768018324
 30
0.0
 10
364.3171250174277
 20
-116.8893768018324
 30
0.0
 10
362.9695328546793
 20
-115.5382534162109
 30
0.0
 10
362.9695328546793
 20
-113.8872344685985
 30
0.0
 10
362.9695328546793
 20
-113.8872344685985
 30
0.0
 10
362.9695328546793
 20
-101.8892803361271
 30
0.0
 10
362.9695328546793
 20
-101.8892803361271
 30
0.0
 10
362.9695328546793
 20
-100.2382829203618
 30
0.0
 10
364.3171250174277
 20
-98.88713800289324
 30
0.0
 10
365.9681439650407
 20
-98.88713800289324
 30
0.0
 10
365.9681439650407
 20
-98.88713800289324
 30
0.0
 10
367.5415190731543
 20
-98.88713800289324
 30
0.0
 10
367.5415190731543
 20
-98.88713800289324
 30
0.0
 10
367.5415190731543
 20
-98.88713800289324
 30
0.0
 10
356.5842421593878
 20
-72.67575342692655
 30
0.0
 10
356.5842421593878
 20
-72.67575342692655
 30
0.0
 10
355.9492464659191
 20
-71.15175084348594
 30
0.0
 10
356.6724366038102
 20
-69.38786195503802
 30
0.0
 10
358.1964391872515
 20
-68.75286626156645
 30
0.0
 10
358.1964391872515
 20
-68.75286626156645
 30
0.0
 10
369.2666075737009
 20
-64.12089231795416
 30
0.0
 10
369.2666075737009
 20
-64.12089231795416
 30
0.0
 10
370.7906316889864
 20
-63.48940631550786
 30
0.0
 10
372.5545205774343
 20
-64.21612767627452
 30
0.0
 10
373.1930259619324
 20
-65.7330678139707
 30
0.0
 10
373.1930259619324
 20
-65.7330678139707
 30
0.0
 10
378.220109294009
 20
-77.76633417516562
 30
0.0
 10
378.220109294009
 20
-77.76633417516562
 30
0.0
 10
379.2502359077916
 20
-80.22518495037556
 30
0.0
 10
382.7427014559636
 20
-80.21461281360553
 30
0.0
 10
383.7552150190785
 20
-77.74516836977844
 30
0.0
 10
383.7552150190785
 20
-77.74516836977844
 30
0.0
 10
388.7081857345294
 20
-65.68369528929739
 30
0.0
 10
388.7081857345294
 20
-65.68369528929739
 30
0.0
 10
389.3326092912309
 20
-64.1596927058571
 30
0.0
 10
391.0929669568051
 20
-63.42237767647297
 30
0.0
 10
392.6169480084016
 20
-64.0468012331745
 30
0.0
 10
392.6169480084016
 20
-64.0468012331745
 30
0.0
 10
403.7223855598787
 20
-68.6082153148792
 30
0.0
 10
403.7223855598787
 20
-68.6082153148792
 30
0.0
 10
405.2499408980384
 20
-69.23263887158073
 30
0.0
 10
405.9837462363967
 20
-70.99299653715627
 30
0.0
 10
405.3593226796951
 20
-72.51699912059688
 30
0.0
  0
SPLINE
  5
57
330
1F
100
AcDbEntity
  8
LAYER_1
 62
     7
100
AcDbSpline
210
0.0
220
0.0
230
1.0
 70
    11
 71
     3
 72
    11
 73
     7
 74
     0
 42
0.0000000001
 43
0.0000000001
 12
1.0
 22
0.0
 32
0.0
 13
1.0
 23
0.0
 33
0.0
 40
0.0
 40
0.0
 40
0.0
 40
0.0
 40
1.0
 40
1.0
 40
1.0
 40
2.0
 40
2.0
 40
2.0
 40
2.0
 10
382.1571213508602
 20
-116.8893768018324
 30
0.0
 10
381.4268472353725
 20
-116.9775712462547
 30
0.0
 10
380.7036355656333
 20
-116.9775712462547
 30
0.0
 10
380.0051424559989
 20
-116.8893768018324
 30
0.0
 10
380.0051424559989
 20
-116.8893768018324
 30
0.0
 10
382.1571213508602
 20
-116.8893768018324
 30
0.0
 10
382.1571213508602
 20
-116.8893768018324
 30
0.0
  0
SPLINE
  5
58
330
1F
100
AcDbEntity
  8
LAYER_1
 62
     1
100
AcDbSpline
210
0.0
220
0.0
230
1.0
 70
    11
 71
     3
 72
    17
 73
    13
 74
     0
 42
0.0000000001
 43
0.0000000001
 12
1.0
 22
0.0
 32
0.0
 13
1.0
 23
0.0
 33
0.0
 40
0.0
 40
0.0
 40
0.0
 40
0.0
 40
1.0
 40
1.0
 40
1.0
 40
2.0
 40
2.0
 40
2.0
 40
3.0
 40
3.0
 40
3.0
 40
4.0
 40
4.0
 40
4.0
 40
4.0
 10
396.161332581765
 20
-124.2820562424076
 30
0.0
 10
397.8181868307477
 20
-124.2820562424076
 30
0.0
 10
399.1613325810137
 20
-125.6252019926697
 30
0.0
 10
399.1613325810137
 20
-127.282056241655
 30
0.0
 10
399.1613325810137
 20
-128.9389104906415
 30
0.0
 10
397.8181868307477
 20
-130.2820562409075
 30
0.0
 10
396.161332581765
 20
-130.2820562409075
 30
0.0
 10
394.5044783327791
 20
-130.2820562409075
 30
0.0
 10
393.1613325825131
 20
-128.9389104906415
 30
0.0
 10
393.1613325825131
 20
-127.282056241655
 30
0.0
 10
393.1613325825131
 20
-125.6252019926697
 30
0.0
 10
394.5044783327791
 20
-124.2820562424076
 30
0.0
 10
396.161332581765
 20
-124.2820562424076
 30
0.0
  0
SPLINE
  5
59
330
1F
100
AcDbEntity
  8
LAYER_1
 62
     1
100
AcDbSpline
210
0.0
220
0.0
230
1.0
 70
    11
 71
     3
 72
    17
 73
    13
 74
     0
 42
0.0000000001
 43
0.0000000001
 12
1.0
 22
0.0
 32
0.0
 13
1.0
 23
0.0
 33
0.0
 40
0.0
 40
0.0
 40
0.0
 40
0.0
 40
1.0
 40
1.0
 40
1.0
 40
2.0
 40
2.0
 40
2.0
 40
3.0
 40
3.0
 40
3.0
 40
4.0
 40
4.0
 40
4.0
 40
4.0
 10
391.6611534409275
 20
-131.0318600950239
 30
0.0
 10
392.0753670031712
 20
-131.0318600950239
 30
0.0
 10
392.4111534407368
 20
-131.3676465325901
 30
0.0
 10
392.4111534407368
 20
-131.7818600948332
 30
0.0
 10
392.4111534407368
 20
-132.1960736570815
 30
0.0
 10
392.0753670031712
 20
-132.531860094647
 30
0.0
 10
391.6611534409275
 20
-132.531860094647
 30
0.0
 10
391.2469398786799
 20
-132.531860094647
 30
0.0
 10
390.9111534411143
 20
-132.1960736570815
 30
0.0
 10
390.9111534411143
 20
-131.7818600948332
 30
0.0
 10
390.9111534411143
 20
-131.3676465325901
 30
0.0
 10
391.2469398786799
 20
-131.0318600950239
 30
0.0
 10
391.6611534409275
 20
-131.0318600950239
 30
0.0
  0
SPLINE
  5
5A
330
1F
100
AcDbEntity
  8
LAYER_1
 62
     1
100
AcDbSpline
210
0.0
220
0.0
230
1.0
 70
    11
 71
     3
 72
    17
 73
    13
 74
     0
 42
0.0000000001
 43
0.0000000001
 12
1.0
 22
0.0
 32
0.0
 13
1.0
 23
0.0
 33
0.0
 40
0.0
 40
0.0
 40
0.0
 40
0.0
 40
1.0
 40
1.0
 40
1.0
 40
2.0
 40
2.0
 40
2.0
 40
3.0
 40
3.0
 40
3.0
 40
4.0
 40
4.0
 40
4.0
 40
4.0
 10
400.6615117225993
 20
-131.0318600950239
 30
0.0
 10
401.0757252848469
 20
-131.0318600950239
 30
0.0
 10
401.4115117224124
 20
-131.3676465325901
 30
0.0
 10
401.4115117224124
 20
-131.7818600948332
 30
0.0
 10
401.4115117224124
 20
-132.1960736570815
 30
0.0
 10
401.0757252848469
 20
-132.531860094647
 30
0.0
 10
400.6615117225993
 20
-132.531860094647
 30
0.0
 10
400.2472981603555
 20
-132.531860094647
 30
0.0
 10
399.91151172279
 20
-132.1960736570815
 30
0.0
 10
399.91151172279
 20
-131.7818600948332
 30
0.0
 10
399.91151172279
 20
-131.3676465325901
 30
0.0
 10
400.2472981603555
 20
-131.0318600950239
 30
0.0
 10
400.6615117225993
 20
-131.0318600950239
 30
0.0
  0
SPLINE
  5
5B
330
1F
100
AcDbEntity
  8
LAYER_1
 62
     1
100
AcDbSpline
210
0.0
220
0.0
230
1.0
 70
    11
 71
     3
 72
    17
 73
    13
 74
     0
 42
0.0000000001
 43
0.0000000001
 12
1.0
 22
0.0
 32
0.0
 13
1.0
 23
0.0
 33
0.0
 40
0.0
 40
0.0
 40
0.0
 40
0.0
 40
1.0
 40
1.0
 40
1.0
 40
2.0
 40
2.0
 40
2.0
 40
3.0
 40
3.0
 40
3.0
 40
4.0
 40
4.0
 40
4.0
 40
4.0
 10
391.6611534409275
 20
-122.032252388668
 30
0.0
 10
392.0753670031712
 20
-122.032252388668
 30
0.0
 10
392.4111534407368
 20
-122.3680388262336
 30
0.0
 10
392.4111534407368
 20
-122.7822523884818
 30
0.0
 10
392.4111534407368
 20
-123.1964659507249
 30
0.0
 10
392.0753670031712
 20
-123.5322523882981
 30
0.0
 10
391.6611534409275
 20
-123.5322523882981
 30
0.0
 10
391.2469398786799
 20
-123.5322523882981
 30
0.0
 10
390.9111534411143
 20
-123.1964659507249
 30
0.0
 10
390.9111534411143
 20
-122.7822523884818
 30
0.0
 10
390.9111534411143
 20
-122.3680388262336
 30
0.0
 10
391.2469398786799
 20
-122.032252388668
 30
0.0
 10
391.6611534409275
 20
-122.032252388668
 30
0.0
  0
SPLINE
  5
5C
330
1F
100
AcDbEntity
  8
LAYER_1
 62
     1
100
AcDbSpline
210
0.0
220
0.0
230
1.0
 70
    11
 71
     3
 72
    17
 73
    13
 74
     0
 42
0.0000000001
 43
0.0000000001
 12
1.0
 22
0.0
 32
0.0
 13
1.0
 23
0.0
 33
0.0
 40
0.0
 40
0.0
 40
0.0
 40
0.0
 40
1.0
 40
1.0
 40
1.0
 40
2.0
 40
2.0
 40
2.0
 40
3.0
 40
3.0
 40
3.0
 40
4.0
 40
4.0
 40
4.0
 40
4.0
 10
400.6615117225993
 20
-122.032252388668
 30
0.0
 10
401.0757252848469
 20
-122.032252388668
 30
0.0
 10
401.4115117224124
 20
-122.3680388262336
 30
0.0
 10
401.4115117224124
 20
-122.7822523884818
 30
0.0
 10
401.4115117224124
 20
-123.1964659507249
 30
0.0
 10
401.0757252848469
 20
-123.5322523882981
 30
0.0
 10
400.6615117225993
 20
-123.5322523882981
 30
0.0
 10
400.2472981603555
 20
-123.5322523882981
 30
0.0
 10
399.91151172279
 20
-123.1964659507249
 30
0.0
 10
399.91151172279
 20
-122.7822523884818
 30
0.0
 10
399.91151172279
 20
-122.3680388262336
 30
0.0
 10
400.2472981603555
 20
-122.032252388668
 30
0.0
 10
400.6615117225993
 20
-122.032252388668
 30
0.0
  0
SPLINE
  5
5D
330
1F
100
AcDbEntity
  8
LAYER_1
 62
     7
100
AcDbSpline
210
0.0
220
0.0
230
1.0
 70
    11
 71
     3
 72
    41
 73
    37
 74
     0
 42
0.0000000001
 43
0.0000000001
 12
1.0
 22
0.0
 32
0.0
 13
1.0
 23
0.0
 33
0.0
 40
0.0
 40
0.0
 40
0.0
 40
0.0
 40
1.0
 40
1.0
 40
1.0
 40
2.0
 40
2.0
 40
2.0
 40
3.0
 40
3.0
 40
3.0
 40
4.0
 40
4.0
 40
4.0
 40
5.0
 40
5.0
 40
5.0
 40
6.0
 40
6.0
 40
6.0
 40
7.0
 40
7.0
 40
7.0
 40
8.0
 40
8.0
 40
8.0
 40
9.0
 40
9.0
 40
9.0
 40
10.0
 40
10.0
 40
10.0
 40
11.0
 40
11.0
 40
11.0
 40
12.0
 40
12.0
 40
12.0
 40
12.0
 10
405.1622973804235
 20
-121.2810222059412
 30
0.0
 10
405.1622973804235
 20
-121.2810222059412
 30
0.0
 10
405.1622973804235
 20
-133.2825290931318
 30
0.0
 10
405.1622973804235
 20
-133.2825290931318
 30
0.0
 10
405.1622973804235
 20
-134.9335265088974
 30
0.0
 10
403.8111524629534
 20
-136.2811402034932
 30
0.0
 10
402.1601550471877
 20
-136.2811402034932
 30
0.0
 10
402.1601550471877
 20
-136.2811402034932
 30
0.0
 10
390.3879623282367
 20
-136.2811402034932
 30
0.0
 10
387.5869059121062
 20
-136.2811402034932
 30
0.0
 10
384.7858494959758
 20
-136.2811402034932
 30
0.0
 10
380.6089726659666
 20
-135.0005551479323
 30
0.0
 10
378.1606940275257
 20
-133.7552392574016
 30
0.0
 10
375.7124153890881
 20
-132.5099448987177
 30
0.0
 10
372.5409466127522
 20
-128.8410473980073
 30
0.0
 10
369.4259128068374
 20
-128.1566576480157
 30
0.0
 10
368.0183329189502
 20
-127.8462114811011
 30
0.0
 10
366.7730170284208
 20
-127.6909883976438
 30
0.0
 10
365.6017922226698
 20
-127.6274909814813
 30
0.0
 10
364.571687140732
 20
-127.5710560110635
 30
0.0
 10
363.5980170292145
 20
-127.5851593707063
 30
0.0
 10
362.6208372266715
 20
-127.6204500675833
 30
0.0
 10
361.0721376149704
 20
-127.507558594901
 30
0.0
 10
359.8479875298278
 20
-126.2128701796973
 30
0.0
 10
359.8479875298278
 20
-124.639473539737
 30
0.0
 10
359.8479875298278
 20
-124.639473539737
 30
0.0
 10
359.8479875298278
 20
-121.2704500691708
 30
0.0
 10
359.8479875298278
 20
-121.2704500691708
 30
0.0
 10
359.8479875298278
 20
-119.6194526534051
 30
0.0
 10
361.1885387786789
 20
-118.2824110955797
 30
0.0
 10
362.8395577262887
 20
-118.2824110955797
 30
0.0
 10
362.8395577262887
 20
-118.2824110955797
 30
0.0
 10
402.1601550471877
 20
-118.2824110955797
 30
0.0
 10
402.1601550471877
 20
-118.2824110955797
 30
0.0
 10
403.8111524629534
 20
-118.2824110955797
 30
0.0
 10
405.1622973804235
 20
-119.6335560130479
 30
0.0
 10
405.1622973804235
 20
-121.2810222059412
 30
0.0
  0
SPLINE
  5
5E
330
1F
100
AcDbEntity
  8
LAYER_1
 62
     1
100
AcDbSpline
210
0.0
220
0.0
230
1.0
 70
    11
 71
     3
 72
    17
 73
    13
 74
     0
 42
0.0000000001
 43
0.0000000001
 12
1.0
 22
0.0
 32
0.0
 13
1.0
 23
0.0
 33
0.0
 40
0.0
 40
0.0
 40
0.0
 40
0.0
 40
1.0
 40
1.0
 40
1.0
 40
2.0
 40
2.0
 40
2.0
 40
3.0
 40
3.0
 40
3.0
 40
4.0
 40
4.0
 40
4.0
 40
4.0
 10
366.3489523293612
 20
-146.766119359304
 30
0.0
 10
364.6920980803746
 20
-146.766119359304
 30
0.0
 10
363.3489523301093
 20
-145.4229736090418
 30
0.0
 10
363.3489523301093
 20
-143.7661193600559
 30
0.0
 10
363.3489523301093
 20
-142.1092651110693
 30
0.0
 10
364.6920980803746
 20
-140.7661193608034
 30
0.0
 10
366.3489523293612
 20
-140.7661193608034
 30
0.0
 10
368.0058065783477
 20
-140.7661193608034
 30
0.0
 10
369.3489523286099
 20
-142.1092651110693
 30
0.0
 10
369.3489523286099
 20
-143.7661193600559
 30
0.0
 10
369.3489523286099
 20
-145.4229736090418
 30
0.0
 10
368.0058065783477
 20
-146.766119359304
 30
0.0
 10
366.3489523293612
 20
-146.766119359304
 30
0.0
  0
SPLINE
  5
5F
330
1F
100
AcDbEntity
  8
LAYER_1
 62
     1
100
AcDbSpline
210
0.0
220
0.0
230
1.0
 70
    11
 71
     3
 72
    17
 73
    13
 74
     0
 42
0.0000000001
 43
0.0000000001
 12
1.0
 22
0.0
 32
0.0
 13
1.0
 23
0.0
 33
0.0
 40
0.0
 40
0.0
 40
0.0
 40
0.0
 40
1.0
 40
1.0
 40
1.0
 40
2.0
 40
2.0
 40
2.0
 40
3.0
 40
3.0
 40
3.0
 40
4.0
 40
4.0
 40
4.0
 40
4.0
 10
370.8491314701987
 20
-140.0163155066876
 30
0.0
 10
370.4349179079511
 20
-140.0163155066876
 30
0.0
 10
370.0991314703856
 20
-139.6805290691214
 30
0.0
 10
370.0991314703856
 20
-139.2663155068776
 30
0.0
 10
370.0991314703856
 20
-138.85210194463
 30
0.0
 10
370.4349179079511
 20
-138.5163155070645
 30
0.0
 10
370.8491314701987
 20
-138.5163155070645
 30
0.0
 10
371.2633450324463
 20
-138.5163155070645
 30
0.0
 10
371.5991314700086
 20
-138.85210194463
 30
0.0
 10
371.5991314700086
 20
-139.2663155068776
 30
0.0
 10
371.5991314700086
 20
-139.6805290691214
 30
0.0
 10
371.2633450324463
 20
-140.0163155066876
 30
0.0
 10
370.8491314701987
 20
-140.0163155066876
 30
0.0
  0
SPLINE
  5
60
330
1F
100
AcDbEntity
  8
LAYER_1
 62
     1
100
AcDbSpline
210
0.0
220
0.0
230
1.0
 70
    11
 71
     3
 72
    17
 73
    13
 74
     0
 42
0.0000000001
 43
0.0000000001
 12
1.0
 22
0.0
 32
0.0
 13
1.0
 23
0.0
 33
0.0
 40
0.0
 40
0.0
 40
0.0
 40
0.0
 40
1.0
 40
1.0
 40
1.0
 40
2.0
 40
2.0
 40
2.0
 40
3.0
 40
3.0
 40
3.0
 40
4.0
 40
4.0
 40
4.0
 40
4.0
 10
361.8487731885237
 20
-140.0163155066876
 30
0.0
 10
361.4345596262761
 20
-140.0163155066876
 30
0.0
 10
361.0987731887105
 20
-139.6805290691214
 30
0.0
 10
361.0987731887105
 20
-139.2663155068776
 30
0.0
 10
361.0987731887105
 20
-138.85210194463
 30
0.0
 10
361.4345596262761
 20
-138.5163155070645
 30
0.0
 10
361.8487731885237
 20
-138.5163155070645
 30
0.0
 10
362.2629867507674
 20
-138.5163155070645
 30
0.0
 10
362.598773188333
 20
-138.85210194463
 30
0.0
 10
362.598773188333
 20
-139.2663155068776
 30
0.0
 10
362.598773188333
 20
-139.6805290691214
 30
0.0
 10
362.2629867507674
 20
-140.0163155066876
 30
0.0
 10
361.8487731885237
 20
-140.0163155066876
 30
0.0
  0
SPLINE
  5
61
330
1F
100
AcDbEntity
  8
LAYER_1
 62
     1
100
AcDbSpline
210
0.0
220
0.0
230
1.0
 70
    11
 71
     3
 72
    17
 73
    13
 74
     0
 42
0.0000000001
 43
0.0000000001
 12
1.0
 22
0.0
 32
0.0
 13
1.0
 23
0.0
 33
0.0
 40
0.0
 40
0.0
 40
0.0
 40
0.0
 40
1.0
 40
1.0
 40
1.0
 40
2.0
 40
2.0
 40
2.0
 40
3.0
 40
3.0
 40
3.0
 40
4.0
 40
4.0
 40
4.0
 40
4.0
 10
370.8491314701987
 20
-149.0159232130428
 30
0.0
 10
370.4349179079511
 20
-149.0159232130428
 30
0.0
 10
370.0991314703856
 20
-148.6801367754773
 30
0.0
 10
370.0991314703856
 20
-148.2659232132297
 30
0.0
 10
370.0991314703856
 20
-147.851709650986
 30
0.0
 10
370.4349179079511
 20
-147.5159232134134
 30
0.0
 10
370.8491314701987
 20
-147.5159232134134
 30
0.0
 10
371.2633450324463
 20
-147.5159232134134
 30
0.0
 10
371.5991314700086
 20
-147.851709650986
 30
0.0
 10
371.5991314700086
 20
-148.2659232132297
 30
0.0
 10
371.5991314700086
 20
-148.6801367754773
 30
0.0
 10
371.2633450324463
 20
-149.0159232130428
 30
0.0
 10
370.8491314701987
 20
-149.0159232130428
 30
0.0
  0
SPLINE
  5
62
330
1F
100
AcDbEntity
  8
LAYER_1
 62
     1
100
AcDbSpline
210
0.0
220
0.0
230
1.0
 70
    11
 71
     3
 72
    17
 73
    13
 74
     0
 42
0.0000000001
 43
0.0000000001
 12
1.0
 22
0.0
 32
0.0
 13
1.0
 23
0.0
 33
0.0
 40
0.0
 40
0.0
 40
0.0
 40
0.0
 40
1.0
 40
1.0
 40
1.0
 40
2.0
 40
2.0
 40
2.0
 40
3.0
 40
3.0
 40
3.0
 40
4.0
 40
4.0
 40
4.0
 40
4.0
 10
361.8487731885237
 20
-149.0159232130428
 30
0.0
 10
361.4345596262761
 20
-149.0159232130428
 30
0.0
 10
361.0987731887105
 20
-148.6801367754773
 30
0.0
 10
361.0987731887105
 20
-148.2659232132297
 30
0.0
 10
361.0987731887105
 20
-147.851709650986
 30
0.0
 10
361.4345596262761
 20
-147.5159232134134
 30
0.0
 10
361.8487731885237
 20
-147.5159232134134
 30
0.0
 10
362.2629867507674
 20
-147.5159232134134
 30
0.0
 10
362.598773188333
 20
-147.851709650986
 30
0.0
 10
362.598773188333
 20
-148.2659232132297
 30
0.0
 10
362.598773188333
 20
-148.6801367754773
 30
0.0
 10
362.2629867507674
 20
-149.0159232130428
 30
0.0
 10
361.8487731885237
 20
-149.0159232130428
 30
0.0
  0
SPLINE
  5
63
330
1F
100
AcDbEntity
  8
LAYER_1
 62
     7
100
AcDbSpline
210
0.0
220
0.0
230
1.0
 70
    11
 71
     3
 72
    41
 73
    37
 74
     0
 42
0.0000000001
 43
0.0000000001
 12
1.0
 22
0.0
 32
0.0
 13
1.0
 23
0.0
 33
0.0
 40
0.0
 40
0.0
 40
0.0
 40
0.0
 40
1.0
 40
1.0
 40
1.0
 40
2.0
 40
2.0
 40
2.0
 40
3.0
 40
3.0
 40
3.0
 40
4.0
 40
4.0
 40
4.0
 40
5.0
 40
5.0
 40
5.0
 40
6.0
 40
6.0
 40
6.0
 40
7.0
 40
7.0
 40
7.0
 40
8.0
 40
8.0
 40
8.0
 40
9.0
 40
9.0
 40
9.0
 40
10.0
 40
10.0
 40
10.0
 40
11.0
 40
11.0
 40
11.0
 40
12.0
 40
12.0
 40
12.0
 40
12.0
 10
357.3479875306988
 20
-149.7671533957697
 30
0.0
 10
357.3479875306988
 20
-149.7671533957697
 30
0.0
 10
357.3479875306988
 20
-137.7656465085791
 30
0.0
 10
357.3479875306988
 20
-137.7656465085791
 30
0.0
 10
357.3479875306988
 20
-136.1146490928135
 30
0.0
 10
358.6991324481696
 20
-134.7670353982177
 30
0.0
 10
360.3501298639346
 20
-134.7670353982177
 30
0.0
 10
360.3501298639346
 20
-134.7670353982177
 30
0.0
 10
372.1223225828889
 20
-134.7670353982177
 30
0.0
 10
374.9233789990161
 20
-134.7670353982177
 30
0.0
 10
377.7244354151466
 20
-134.7670353982177
 30
0.0
 10
381.9013122451564
 20
-136.0476204537786
 30
0.0
 10
384.3495908835973
 20
-137.2929363443093
 30
0.0
 10
386.7978695220343
 20
-138.5382307029932
 30
0.0
 10
389.9693382983701
 20
-142.2071282037035
 30
0.0
 10
393.0843721042849
 20
-142.8915179536952
 30
0.0
 10
394.4919519921728
 20
-143.2019641206098
 30
0.0
 10
395.7372678827015
 20
-143.3571872040671
 30
0.0
 10
396.9084926884532
 20
-143.4206846202296
 30
0.0
 10
397.938597770391
 20
-143.4771195906473
 30
0.0
 10
398.9122678819078
 20
-143.4630162310046
 30
0.0
 10
399.8894476844541
 20
-143.4277255341276
 30
0.0
 10
401.438147296152
 20
-143.5406170068098
 30
0.0
 10
402.6622973812984
 20
-144.8353054220135
 30
0.0
 10
402.6622973812984
 20
-146.4087020619739
 30
0.0
 10
402.6622973812984
 20
-146.4087020619739
 30
0.0
 10
402.6622973812984
 20
-149.7777255325401
 30
0.0
 10
402.6622973812984
 20
-149.7777255325401
 30
0.0
 10
402.6622973812984
 20
-151.4287229483057
 30
0.0
 10
401.3217461324467
 20
-152.7657645061312
 30
0.0
 10
399.6707271848336
 20
-152.7657645061312
 30
0.0
 10
399.6707271848336
 20
-152.7657645061312
 30
0.0
 10
360.3501298639346
 20
-152.7657645061312
 30
0.0
 10
360.3501298639346
 20
-152.7657645061312
 30
0.0
 10
358.6991324481696
 20
-152.7657645061312
 30
0.0
 10
357.3479875306988
 20
-151.414619588663
 30
0.0
 10
357.3479875306988
 20
-149.7671533957697
 30
0.0
  0
ENDSEC
  0
SECTION
  2
OBJECTS
  0
DICTIONARY
  5
C
330
0
100
AcDbDictionary
  3
ACAD_GROUP
350
D
  3
ACAD_LAYOUT
350
1A
  3
ACAD_MATERIAL
350
3B
  3
ACAD_MLEADERSTYLE
350
86
  3
ACAD_MLINESTYLE
350
17
  3
ACAD_PLOTSETTINGS
350
19
  3
ACAD_VISUALSTYLE
350
2A
  3
ACDBHEADERROUNDTRIPXREC
350
64
  3
ACDBVARIABLEDICTIONARY
350
84
  0
DICTIONARY
  5
D
102
{ACAD_REACTORS
330
C
102
}
330
C
100
AcDbDictionary
  0
DICTIONARY
  5
1A
102
{ACAD_REACTORS
330
C
102
}
330
C
100
AcDbDictionary
  0
DICTIONARY
  5
3B
102
{ACAD_REACTORS
330
C
102
}
330
C
100
AcDbDictionary
  3
BYBLOCK
350
3D
  3
BYLAYER
350
3C
  3
GLOBAL
350
3E
  0
DICTIONARY
  5
86
102
{ACAD_REACTORS
330
C
102
}
330
C
100
AcDbDictionary
  0
DICTIONARY
  5
17
102
{ACAD_REACTORS
330
C
102
}
330
C
100
AcDbDictionary
  3
STANDARD
350
18
  0
DICTIONARY
  5
19
102
{ACAD_REACTORS
330
C
102
}
330
C
100
AcDbDictionary
  0
DICTIONARY
  5
2A
102
{ACAD_REACTORS
330
C
102
}
330
C
100
AcDbDictionary
  3
2DWIREFRAME
350
2F
  3
3D_HIDDEN
350
31
  3
3DWIREFRAME
350
30
  3
BASIC
350
32
  3
BRIGHTEN
350
36
  3
COLORCHANGE
350
3A
  3
CONCEPTUAL
350
34
  3
DIM
350
35
  3
FACEPATTERN
350
39
  3
FLAT
350
2B
  3
FLATWITHEDGES
350
2C
  3
GOURAUD
350
2D
  3
GOURAUDWITHEDGES
350
2E
  3
LINEPATTERN
350
38
  3
REALISTIC
350
33
  3
THICKEN
350
37
  0
DICTIONARY
  5
64
102
{ACAD_REACTORS
330
C
102
}
330
C
100
AcDbDictionary
  3
CEPSNTYPE
350
6D
  3
DIMSTYLEDATA
350
83
  3
FINGERPRINTGUID
350
6E
  3
HYPERLINKBASE
350
67
  3
INSUNITS
350
6C
  3
LAYOUTDICT
350
69
  3
LWETCUNION
350
6B
  3
PLOTSETDICT
350
6A
  3
PSVPSCALE
350
70
  3
PUCSBASE
350
73
  3
PUCSORGBACK
350
79
  3
PUCSORGBOTTOM
350
75
  3
PUCSORGFRONT
350
78
  3
PUCSORGLEFT
350
76
  3
PUCSORGRIGHT
350
77
  3
PUCSORGTOP
350
74
  3
PUCSORTHOREF
350
71
  3
PUCSORTHOVIEW
350
72
  3
STYLESHEET
350
68
  3
TSTACKALIGN
350
65
  3
TSTACKSIZE
350
66
  3
UCSBASE
350
7C
  3
UCSORGBACK
350
82
  3
UCSORGBOTTOM
350
7E
  3
UCSORGFRONT
350
81
  3
UCSORGLEFT
350
7F
  3
UCSORGRIGHT
350
80
  3
UCSORGTOP
350
7D
  3
UCSORTHOREF
350
7A
  3
UCSORTHOVIEW
350
7B
  3
VERSIONGUID
350
6F
  0
DICTIONARY
  5
84
102
{ACAD_REACTORS
330
C
102
}
330
C
100
AcDbDictionary
  3
DIMASSOC
350
87
  3
HIDETEXT
350
88
  0
MATERIAL
  5
3D
102
{ACAD_REACTORS
330
3B
102
}
102
{ACAD_XDICTIONARY
360
8B
102
}
330
3B
100
AcDbMaterial
  1
ByBlock
  0
MATERIAL
  5
3C
102
{ACAD_REACTORS
330
3B
102
}
102
{ACAD_XDICTIONARY
360
89
102
}
330
3B
100
AcDbMaterial
  1
ByLayer
  0
MATERIAL
  5
3E
102
{ACAD_REACTORS
330
3B
102
}
102
{ACAD_XDICTIONARY
360
8D
102
}
330
3B
100
AcDbMaterial
  1
Global
  0
MLINESTYLE
  5
18
102
{ACAD_REACTORS
330
17
102
}
330
17
100
AcDbMlineStyle
  2
Standard
 70
     0
  3

 62
   256
 51
90.0
 52
90.0
 71
     2
 49
0.5
 62
   256
  6
BYLAYER
 49
-0.5
 62
   256
  6
BYLAYER
  0
ACAD_PROXY_OBJECT
  5
2F
102
{ACAD_REACTORS
330
2A
102
}
330
2A
100
AcDbProxyObject
 90
      499
 91
      501
 93
      436
310
42CC9915DA5C99599C985B595049028333333333333E3BF0000000000000FB0107901411070040501600405405064090741402480A0340
1001
ACAD
1000
AcDbSavedByObjectVersion
1070
     0
  0
ACAD_PROXY_OBJECT
  5
31
102
{ACAD_REACTORS
330
2A
102
}
330
2A
100
AcDbProxyObject
 90
      499
 91
      501
 93
      500
310
424CD108121A5919195B90640502408333333333333E3BF0000000000000FB01079024090700405020000000000001110200405405064090740C02480A0340
1001
ACAD
1000
AcDbSavedByObjectVersion
1070
     0
  0
ACAD_PROXY_OBJECT
  5
30
102
{ACAD_REACTORS
330
2A
102
}
330
2A
100
AcDbProxyObject
 90
      499
 91
      501
 93
      436
310
42CCD915DA5C99599C985B595059028333333333333E3BF0000000000000FB0107901411070040501600405405064090741402480A0340
1001
ACAD
1000
AcDbSavedByObjectVersion
1070
     0
  0
ACAD_PROXY_OBJECT
  5
32
102
{ACAD_REACTORS
330
2A
102
}
330
2A
100
AcDbProxyObject
 90
      499
 91
      501
 93
      388
310
4150985CDA58D07406404333333333333E3BF0000000000000FB0107A41107004050150841D405064090741402480A0350
1001
ACAD
1000
AcDbSavedByObjectVersion
1070
     0
  0
ACAD_PROXY_OBJECT
  5
36
102
{ACAD_REACTORS
330
2A
102
}
330
2A
100
AcDbProxyObject
 90
      499
 91
      501
 93
      428
310
42109C9A59DA1D195B90C409028333333333333E3BF0000000000000FB010790141107004050150841D405064090741402480A029950
1001
ACAD
1000
AcDbSavedByObjectVersion
1070
     0
  0
ACAD_PROXY_OBJECT
  5
3A
102
{ACAD_REACTORS
330
2A
102
}
330
2A
100
AcDbProxyObject
 90
      499
 91
      501
 93
      452
310
42D0DBDB1BDC90DA185B99D95104090240C333333333333E3BF0000000000000FB0108901411070040501508421405064090741402480A0350
1001
ACAD
1000
AcDbSavedByObjectVersion
1070
     0
  0
ACAD_PROXY_OBJECT
  5
34
102
{ACAD_REACTORS
330
2A
102
}
330
2A
100
AcDbProxyObject
 90
      499
 91
      501
 93
      500
310
4290DBDB98D95C1D1D585B10940D028333333333333E3BF0000000000000FB0107902409070040501000000000000111010841D405064090740C02480A0340
1001
ACAD
1000
AcDbSavedByObjectVersion
1070
     0
  0
ACAD_PROXY_OBJECT
  5
35
102
{ACAD_REACTORS
330
2A
102
}
330
2A
100
AcDbProxyObject
 90
      499
 91
      501
 93
      412
310
40D11A5B50B409028333333333333E3BF0000000000000FB010790141107004050150841D405064090741402480A02677FFFFFD0
1001
ACAD
1000
AcDbSavedByObjectVersion
1070
     0
  0
ACAD_PROXY_OBJECT
  5
39
102
{ACAD_REACTORS
330
2A
102
}
330
2A
100
AcDbProxyObject
 90
      499
 91
      501
 93
      444
310
42D19858D95C185D1D195C9B90F409028333333333333E3BF0000000000000FB010790141107004050150841D405064090741402480A0350
1001
ACAD
1000
AcDbSavedByObjectVersion
1070
     0
  0
ACAD_PROXY_OBJECT
  5
2B
102
{ACAD_REACTORS
330
2A
102
}
330
2A
100
AcDbProxyObject
 90
      499
 91
      501
 93
      388
310
41119B185D240901404333333333333E3BF0000000000000F9010740A41107004050150841D405064090741402480A1B50
1001
ACAD
1000
AcDbSavedByObjectVersion
1070
     0
  0
ACAD_PROXY_OBJECT
  5
2C
102
{ACAD_REACTORS
330
2A
102
}
330
2A
100
AcDbProxyObject
 90
      499
 91
      501
 93
      476
310
43519B185D15DA5D1A115919D95CD0140901404333333333333E3BF0000000000000F9010740901411070040501600405405064090741402480A1B50
1001
ACAD
1000
AcDbSavedByObjectVersion
1070
     0
  0
ACAD_PROXY_OBJECT
  5
2D
102
{ACAD_REACTORS
330
2A
102
}
330
2A
100
AcDbProxyObject
 90
      499
 91
      501
 93
      412
310
41D1DBDD5C985D5910240902404333333333333E3BF0000000000000F9010740A411070040501641D405064090741402480A1B50
1001
ACAD
1000
AcDbSavedByObjectVersion
1070
     0
  0
ACAD_PROXY_OBJECT
  5
2E
102
{ACAD_REACTORS
330
2A
102
}
330
2A
100
AcDbProxyObject
 90
      499
 91
      501
 93
      500
310
4411DBDD5C985D5915DA5D1A115919D95CD0340902404333333333333E3BF0000000000000F9010740901411070040501600405405064090741402480A1B50
1001
ACAD
1000
AcDbSavedByObjectVersion
1070
     0
  0
ACAD_PROXY_OBJECT
  5
38
102
{ACAD_REACTORS
330
2A
102
}
330
2A
100
AcDbProxyObject
 90
      499
 91
      501
 93
      444
310
42D31A5B995C185D1D195C9B90E409028333333333333E3BF0000000000000FB010790141107004050750841D405064090741402483A0350
1001
ACAD
1000
AcDbSavedByObjectVersion
1070
     0
  0
ACAD_PROXY_OBJECT
  5
33
102
{ACAD_REACTORS
330
2A
102
}
330
2A
100
AcDbProxyObject
 90
      499
 91
      501
 93
      420
310
425499585B1A5CDD1A58D08409028333333333333E3BF0000000000000FB01079019070040501508421405064090741402480A1B40
1001
ACAD
1000
AcDbSavedByObjectVersion
1070
     0
  0
ACAD_PROXY_OBJECT
  5
37
102
{ACAD_REACTORS
330
2A
102
}
330
2A
100
AcDbProxyObject
 90
      499
 91
      501
 93
      412
310
41D51A1A58DAD95B90D409028333333333333E3BF0000000000000FB010790141107004050150C41D405064090741402480A0350
1001
ACAD
1000
AcDbSavedByObjectVersion
1070
     0
  0
XRECORD
  5
6D
102
{ACAD_REACTORS
330
64
102
}
330
64
100
AcDbXrecord
 90
        0
  0
XRECORD
  5
83
102
{ACAD_REACTORS
330
64
102
}
330
64
100
AcDbXrecord
1000
DSTYLE
1002
{
1070
   340
340
11
1002
}
  0
XRECORD
  5
6E
102
{ACAD_REACTORS
330
64
102
}
330
64
100
AcDbXrecord
  1
{A973C730-AFDB-4F85-B42F-6551CC01997D}
  0
XRECORD
  5
67
102
{ACAD_REACTORS
330
64
102
}
330
64
100
AcDbXrecord
  1

  0
XRECORD
  5
6C
102
{ACAD_REACTORS
330
64
102
}
330
64
100
AcDbXrecord
 90
        4
  0
XRECORD
  5
69
102
{ACAD_REACTORS
330
64
102
}
330
64
100
AcDbXrecord
340
1A
  0
XRECORD
  5
6B
102
{ACAD_REACTORS
330
64
102
}
330
64
100
AcDbXrecord
 90
    10269
  0
XRECORD
  5
6A
102
{ACAD_REACTORS
330
64
102
}
330
64
100
AcDbXrecord
340
19
  0
XRECORD
  5
70
102
{ACAD_REACTORS
330
64
102
}
330
64
100
AcDbXrecord
 40
0.0
  0
XRECORD
  5
73
102
{ACAD_REACTORS
330
64
102
}
330
64
100
AcDbXrecord
340
0
  0
XRECORD
  5
79
102
{ACAD_REACTORS
330
64
102
}
330
64
100
AcDbXrecord
 10
0.0
 20
0.0
 30
0.0
  0
XRECORD
  5
75
102
{ACAD_REACTORS
330
64
102
}
330
64
100
AcDbXrecord
 10
0.0
 20
0.0
 30
0.0
  0
XRECORD
  5
78
102
{ACAD_REACTORS
330
64
102
}
330
64
100
AcDbXrecord
 10
0.0
 20
0.0
 30
0.0
  0
XRECORD
  5
76
102
{ACAD_REACTORS
330
64
102
}
330
64
100
AcDbXrecord
 10
0.0
 20
0.0
 30
0.0
  0
XRECORD
  5
77
102
{ACAD_REACTORS
330
64
102
}
330
64
100
AcDbXrecord
 10
0.0
 20
0.0
 30
0.0
  0
XRECORD
  5
74
102
{ACAD_REACTORS
330
64
102
}
330
64
100
AcDbXrecord
 10
0.0
 20
0.0
 30
0.0
  0
XRECORD
  5
71
102
{ACAD_REACTORS
330
64
102
}
330
64
100
AcDbXrecord
340
0
  0
XRECORD
  5
72
102
{ACAD_REACTORS
330
64
102
}
330
64
100
AcDbXrecord
 70
     0
  0
XRECORD
  5
68
102
{ACAD_REACTORS
330
64
102
}
330
64
100
AcDbXrecord
  1

  0
XRECORD
  5
65
102
{ACAD_REACTORS
330
64
102
}
330
64
100
AcDbXrecord
 90
        1
  0
XRECORD
  5
66
102
{ACAD_REACTORS
330
64
102
}
330
64
100
AcDbXrecord
 90
       70
  0
XRECORD
  5
7C
102
{ACAD_REACTORS
330
64
102
}
330
64
100
AcDbXrecord
340
0
  0
XRECORD
  5
82
102
{ACAD_REACTORS
330
64
102
}
330
64
100
AcDbXrecord
 10
0.0
 20
0.0
 30
0.0
  0
XRECORD
  5
7E
102
{ACAD_REACTORS
330
64
102
}
330
64
100
AcDbXrecord
 10
0.0
 20
0.0
 30
0.0
  0
XRECORD
  5
81
102
{ACAD_REACTORS
330
64
102
}
330
64
100
AcDbXrecord
 10
0.0
 20
0.0
 30
0.0
  0
XRECORD
  5
7F
102
{ACAD_REACTORS
330
64
102
}
330
64
100
AcDbXrecord
 10
0.0
 20
0.0
 30
0.0
  0
XRECORD
  5
80
102
{ACAD_REACTORS
330
64
102
}
330
64
100
AcDbXrecord
 10
0.0
 20
0.0
 30
0.0
  0
XRECORD
  5
7D
102
{ACAD_REACTORS
330
64
102
}
330
64
100
AcDbXrecord
 10
0.0
 20
0.0
 30
0.0
  0
XRECORD
  5
7A
102
{ACAD_REACTORS
330
64
102
}
330
64
100
AcDbXrecord
340
0
  0
XRECORD
  5
7B
102
{ACAD_REACTORS
330
64
102
}
330
64
100
AcDbXrecord
 70
     0
  0
XRECORD
  5
6F
102
{ACAD_REACTORS
330
64
102
}
330
64
100
AcDbXrecord
  1
{FAEB1C32-E019-11D5-929B-00C0DF256EC4}
  0
DICTIONARYVAR
  5
87
102
{ACAD_REACTORS
330
84
102
}
330
84
100
DictionaryVariables
280
     0
  1
2
  0
DICTIONARYVAR
  5
88
102
{ACAD_REACTORS
330
84
102
}
330
84
100
DictionaryVariables
280
     0
  1
1
  0
DICTIONARY
  5
8B
330
3D
100
AcDbDictionary
280
     1
  3
ACAD_XREC_ROUNDTRIP
360
8C
  0
DICTIONARY
  5
89
330
3C
100
AcDbDictionary
280
     1
  3
ACAD_XREC_ROUNDTRIP
360
8A
  0
DICTIONARY
  5
8D
330
3E
100
AcDbDictionary
280
     1
  3
ACAD_XREC_ROUNDTRIP
360
8E
  0
XRECORD
  5
8C
102
{ACAD_REACTORS
330
8B
102
}
330
8B
100
AcDbXrecord
102
MATERIAL
148
0.0
149
0.0
149
0.0
 93
        0
 94
      127
282
     0
 72
     1
 77
     1
171
     1
175
     1
179
     1
273
     0
  0
XRECORD
  5
8A
102
{ACAD_REACTORS
330
89
102
}
330
89
100
AcDbXrecord
102
MATERIAL
148
0.0
149
0.0
149
0.0
 93
        0
 94
      127
282
     0
 72
     1
 77
     1
171
     1
175
     1
179
     1
273
     0
  0
XRECORD
  5
8E
102
{ACAD_REACTORS
330
8D
102
}
330
8D
100
AcDbXrecord
102
MATERIAL
148
0.0
149
0.0
149
0.0
 93
        0
 94
      127
282
     0
 72
     1
 77
     1
171
     1
175
     1
179
     1
273
     0
  0
ENDSEC
  0
EOF
